Drink The Water

Justin Cross

Acordes

Subida por LEIDER100



Cambiar Cifrado
Americano Latino

Cambiar Tonalidad
-1 +1

Partir Pantalla Imprimir FAQ

+A
-A


Ver solo la LETRA
This is my first tab/chord and is a modified version of one that

I found. I didnt quite agree with the original tab, so I made this one. 
I hope you enjoy.

You can play the E as:
e|-0----|                 e|-0----|
b|-0----|                 b|-3----|
G|-1----|        OR       G|-1----|
D|-2----|                 D|-2----|
A|-2----|                 A|-2----|
E|-0----|                 E|-0----|

[Intro]
e|----------------------------------------------------------------|
B|------------1------------- 1-0------------1---------------------|
G|--0-2p0-2p0---2--0-2p0-2p0------0-2p0-2p0---2--1----------------|
D|-2-----2---2---2------2---2----2-----2---2---2--2-0-0h2---------|
A|----------------------------------------------------------------|
E|----------------------------------------------------------------|(x2)

[Verse 1]
Am                   
I know of sin by the things momma prayed
Am                      E
I know of heaven by the line at its gate
Am                    
I know of truth and America's way
Am                          E
Come drink the water if you want to be saved

Am
Don't drink the water if it's not from my stream
Am                           E
It's all still water if it's not flowing free
Am
Don't drink the water at the watering hole
Am                         E
If you ain't got money, it can't save your soul

[Chorus]
F           G             Am
  All God's people said a-men
F           G             Am
  All God's people said a-men

[Verse 2]
Am                   
I know of sin by the things momma prayed
Am                      E
I know of heaven by the line at its gate
Am                    
I know of truth and America's way
Am                          E
Come drink the water if you want to be saved

[Chorus]
F           G             Am
  All God's people said a-men
F           G             Am
  All God's people said a-men

[Verse 3]
Am
Nobody prays unless they lose a son
Am                          E
Don't believe in God till a war's to be won
Am
I know of lies by the truths I've been told
Am                            E
The biggest one is that we're not growing old

Am
It's not a sin if it don't make me cry
Am                                E
He's not the devil unless there's fire in his eyes
Am
It ain't the ghost if it don't speak in tongue
Am                           E
It's not a victory 'till the battles been won

[Chorus]
F           G             Am
  All God's people said a-men
F           G             Am
  All God's people said a-men

[Outro]
                                                             Am
e|-----------------------------------------------------------0----|
B|------------1-------------1-0------------1-----------------1----|
G|--0-0h2-0h2---2--0-0h2-0h2-----0-0h2-0h2--2-1--------------2----|
D|-2-------------2--------------2------------2--2-0-0h2------2----|
A|-----------------------------------------------------------0----|
E|----------------------------------------------------------------|

************************************

| p  Pull-off
| h  Hammer-on

************************************

NUEVO FORO DE MÚSICA

¿Tienes alguna duda, consulta, pregunta, consejo o algo para compartir sobre esta canción?

¡Puedes abrir un hilo en el FORO para que la comunidad te ayude! Hacer una pregunta

ACORDES PARA GUITARRA

PIANO UKELELE
Am
E
F
G


Las más tocadas de Justin Cross

Am
E
F
G