Um Degrau Na Escada (Acordes)

Kleo Dibah & Rafael

Subida por zapataents

Compartir


Imprimir FAQ
+A
-A

Texto

Desplazamiento

Transportador

Color de Fondo

Archivos

-A
+A
 Am           C                         Dm          F         Am          G
E|--8-7---------------------------------------------------------------------------
B|--8-8-8/10-10-8-8-----------8-10-8p7h8-6p5-6----6p5-------8---------------------
G|------7/9--9-7-7----5/7-10------------------------7p5-7/9--9/7-5-7p5-7/9-10-7---
D|--------------------------------------------------------------------------------
A|--------------------------------------------------------------------------------
E|--------------------------------------------------------------------------------

Am    C/B      C           Dm
Estou   sozinho   livre outra vez
 F      Am
O amor se desfez                          Riff 1
   G Riff 1 G|------5-6/9/6-5-
Não. Não deu em nada                     D|--5/7-----------
Am   C/B C Dm
Você     e  eu tudo aconteceu
 F        Am
Não fui nada mais                       Riff 2
    G Riff 2 E|--7h8-7-5-
Que um degrau na escada                 B|----------

Dm    Dm/E    F
Pensamentos absurdos
Am    Am/G     G G7
Caiu  o meu mundo

[Refrão]
 C                 G
Ainda estou sentindo falta de você
             Ab°            Am
Eu sei que não tem jeito não tem nada a ver
        Am/G          F        G
Eu tenho simplesmente que seguir a minha estrada
C                       G
Quem sabe eu ache alguém para me fazer feliz
          Ab°           Am
Que queira tudo aquilo que você não quis
         Am/G          F
Que saiba dar valor ao meu amor
       G    C
E que me queira bem

 Am           C                         Dm          F         Am          G
E|--8-7---------------------------------------------------------------------------
B|--8-8-8/10-10-8-8-----------8-10-8p7h8-6p5-6----6p5----8---------8--------------
G|------7/9--9-7-7----5/7-10-------------------------7/9--9/7-5-7/9-9/7-5-7/9-----
D|--------------------------------------------------------------------------------
A|----------------------------------------------------------------------------8-5-
E|--------------------------------------------------------------------------------

 Am           C                         Dm          F         Am          G
E|--8-7---------------------------------------------------8-----------------------
B|--8-8-8/10-10-8-8-----------8-10-8p7h8-6p5-6------6-8-8^--8^-6-8p6--------------
G|------7/9--9-7-7---5/7-10----------------------5/7----------------7/9-10-7------
D|--------------------------------------------------------------------------------
A|--------------------------------------------------------------------------------
E|--------------------------------------------------------------------------------

Dm    Dm/E    F
Pensamentos absurdos
Am    Am/G   G  G7
Caiu o meu mundo

C                   G
Ainda estou sentindo falta de você
           Ab°              Am
Eu sei que não tem jeito não tem nada a ver
         Am/G         F      G
Eu tenho simplesmente que seguir a minha estrada
C                       G
Quem sabe eu ache alguém para me fazer feliz
          Ab°           Am
Que queira tudo aquilo que você não quis
          Am/G         F
Que saiba dar valor ao meu amor
       G    C
E que me queira bem

 Dm
Pensamentos loucos
C         F
Que povoam esta minha solidão
G     G7       A A7 D
O sonho disse não

D                           A
Ainda estou sentindo falta de você
             Bb°           Bm
Eu sei que não tem jeito não tem nada a ver
         Bm/A          G      A
Eu tenho simplesmente que seguir a minha estrada
D                       A
Quem sabe eu ache alguém para me fazer feliz
           Bb°           Bm
Que queira tudo aquilo que você não quis
         Bm/A          G
Que saiba dar valor ao meu amor
       A    G   Gm D
E que me queira bem

HERRAMIENTAS ACORDESWEB:


LETRA DE LA CANCIÓN:

Ver la letra sola (sin acordes)

OTRAS VERSIONES DE LA MISMA CANCIÓN:

Ver. 2 Ver. 3 Ver. 4 Ver. 5 Ver. 6

DESCARGAR PDF / IMPRIMIR CANCIÓN



ACORDES PARA GUITARRA

PIANO UKELELE
Am
C
Dm
F
G
C/B
Dm/E
Am/G
G7
Abdim
A
A7
D
Bbdim
Bm
Bm/A
Gm


TOP 20: Las más tocadas de Kleo Dibah & Rafael


Acordes

Cerrar
Am
C
Dm
F
G
C/B
Dm/E
Am/G
G7
Abdim
A
A7
D
Bbdim
Bm
Bm/A
Gm

21.55


208