Turista
L. Camorra
Acordes

Subida por musico


Más Versiones
Ver. 2 Ver. 3

Cambiar Cifrado
Americano Latino

Cambiar Tonalidad
-1 +1

Partir Pantalla Imprimir FAQ

+A
-A
turista: la letra puede ser que tenga errores porque la tuve que sacar
de oido, de hecho en algunas partes no la entendi...
este tema si pueden hacerlo con 2 guitarras suena joya,
una que haga los riffs y la otra que haga los acordes...

(riff: intro / versos)
e|-------7--------4--------5----|
B|----5--------5--------5-------|
G|------------------------------|
D|------------------------------|
A|------------------------------|
E|------------------------------|

E A
por el caserio
E
vive un niño
A E
que hace a su madre llorar

E A
ciclope cariño
E
el infante
A E
apenas puede hablar

E A
dice que te dice
E
las miserias
A E
y tambien la enfermedad

E A
no contiene...
E
y sus padres
A E
se lo suelen festejar


(riff: estribillo)
e|----6b--4b----6b--4b----6b--4b----6b--4b----|
B|----6b--6b----6b--6b----6b--6b----6b--6b----|
G|----6b--6b----6b--6b----6b--6b----6b--6b----|
D|--------------------------------------------|
A|--------------------------------------------|
E|--------------------------------------------|

C#
no lo mire fijo, no lo asuste, no se mueva
no lo mire mas...
C#
deje un donativo, cualquier cosa, lo que pueda
no nos viene mal...


ACORDES PARA GUITARRA

PIANO UKELELE
E
A
C#


COMENTARIOS

Aún no hay comentarios,

¡escribe el primero!

Escribe una pregunta, duda o comentario sobre esta canción, te responderemos a la brevedad.

Las más tocadas de L. Camorra

Toca una Canción al Azar de L. Camorra
E
A
C#