Isla de Palma (La Caja De Pandora) Acordes



Más Versiones de esta Canción | Ver. 2 |

Cambiar Cifrado: |SOL > G| - |G > SOL|

BAJAR UN TONO BAJAR UN SEMI-TONO SUBIR UN SEMI-TONO SUBIR UN TONO PARTIR PANTALLA EN VERTICAL PARTIR PANTALLA EN VERTICAL ¡Ayuda!
-A
+A
                Isla de Palma (Vals del amor eterno)

He exportado la partitura de guitarra eléctrica de esta canción con
el programa GUITAR PRO, si quereis la transcripción entera de la
canción en formato .gp5 me podeis enviar un e-mail para que os la
mande.

GUITARRA ELÉCTRICA

E||-------|-------|-------|-------|-------|-------|-------|-------|
B||-------|-------|-------|-------|-------|-------|-------|-------|
G||-------|-------|-------|-------|-------|-------|-------|-------|
D||-------|-------|-------|-------|-------|-------|-------|-------|
A||-------|-------|-------|-------|-------|-------|-------|-------|
E||-------|-------|-------|-------|-------|-------|-------|-------|


W
-------|-------|-------|-------|--------------------|
-------|-------|-------|-------|--------------------|
-------|-------|-------|-------|--------------------|
-------|-------|-------|-------|--------------------|
-------|-------|-------|-------|--7~----------------|
-------|-------|-------|-------|--------------------|


Q. S E. E. E. W
------------------------|--------------------|
------------------------|--------------------|
------------------------|--------------------|
------------------------|--------------------|
--L--------7---9---10---|--7~----------------|
------------------------|--------------------|


Q. S E. E. E. Q S E Q. E S
------------------------|----------------------------|
------------------------|----------------------------|
------------------------|----------------------------|
------------------------|--12-----L-10--10------9--9-|
--L--------7---9---10---|----------------------------|
------------------------|----------------------------|


Q E. H S W W
----------------------|--------------------|-------------------|
----------------------|--------------------|-------------------|
----------------------|--------------------|-------------------|
--L----L---7--------L-|--9~----------------|--L----------------|
----------------------|--------------------|-------------------|
----------------------|--------------------|-------------------|


W Q. S E. E. E. W
--------------------|------------------------|--------------------|
--------------------|------------------------|--------------------|
--------------------|------------------------|--------------------|
--------------------|------------------------|--------------------|
--7~----------------|--L--------7---9---10---|--7~----------------|
--------------------|------------------------|--------------------|


Q. S E. E. E. Q S E Q. E S
------------------------|----------------------------|
------------------------|----------------------------|
------------------------|----------------------------|
------------------------|--12-----L-10--10------9--9-|
--L--------7---9---10---|----------------------------|
------------------------|----------------------------|


Q E. Q. S S S W W
--------------------------|-------------------|-------------------|
--------------------------|-------------------|-------------------|
--------------------------|-------------------|-------------------|
--L----L---7------L-9p-7h-|--9----------------|--L----------------|
--------------------------|-------------------|-------------------|
--------------------------|-------------------|-------------------|


W Q. S E. E. E.
--------------------|-----------------------|
--------------------|-----------------------|
--6~----------------|--L--------6-----------|
--------------------|---------------9---7---|
--------------------|-----------------------|
--------------------|-----------------------|


S S S H. S W Q S E H S
-------------------------|-------------------|-----------------------|
-------------------------|-------------------|-----------------------|
-------------------------|-------------------|-----------------------|
--6h-7p-6-L------------L-|--L----------------|--9----L-7--7--------L-|
-------------------------|-------------------|-----------------------|
-------------------------|-------------------|-----------------------|


H H W H H
--------------------|-------------------|-----------------------|
--------------------|-------------------|-----------------------|
--------------------|-------------------|-----------------------|
--L--------9--------|-------------------|-----------(9)--------|
--------------------|--9----------------|--L--------------------|
--------------------|-------------------|-----------------------|


H H Q. S E. E. E.
--------------------|-----------------------|
--------------------|-----------------------|
--6--------8--------|--9------L-9---8---6---|
--------------------|-----------------------|
--------------------|-----------------------|
--------------------|-----------------------|


S S H. E H E E. E.
-------------------------|----------------------|
-------------------------|----------------------|
-------------------------|----------------------|
--9h-11p-9------------L--|--L--------L--7---6---|
-------------------------|----------------------|
-------------------------|----------------------|


Q S E H S H H W
-----------------------|--------------------|-------------------|
-----------------------|--------------------|-------------------|
-----------------------|--------------------|-------------------|
--9----L-7--7--------L-|--L--------9--------|--4----------------|
-----------------------|--------------------|-------------------|
-----------------------|--------------------|-------------------|


H. Q W Q. S E. E. E.
--------------------|--------------------|------------------------|
--------------------|--------------------|------------------------|
--------------------|--------------------|------------------------|
--L-----------------|--------------------|------------------------|
--------------------|--7~----------------|--L--------7---9---10---|
--------------------|--------------------|------------------------|


W Q. S E. E. E.
--------------------|------------------------|
--------------------|------------------------|
--------------------|------------------------|
--------------------|------------------------|
--7~----------------|--L--------7---9---10---|
--------------------|------------------------|


Q S E Q. E S Q E. H S
----------------------------|----------------------|
----------------------------|----------------------|
----------------------------|----------------------|
--12-----L-10--10------9--9-|--L----L---7--------L-|
----------------------------|----------------------|
----------------------------|----------------------|


H E E. E. E E E E E E E E H
----------------------|-------------------------------------------|
----------------------|-------------------------------------------|
----------------------|-------------------------------------------|
--9--------L--7---5---|--4h--5p--4h--5p--4h--5p--4h--5p--4--------|
----------------------|-------------------------------------------|
----------------------|-------------------------------------------|


Q S E. Q S E. Q S E. E E. E.
------------------------|-------------------------|
------------------------|-------------------------|
------------------------|-------------------------|
-------------9----L-----|--7----L-----------------|
--7----L-7----------7---|---------7---7--9---10---|
------------------------|-------------------------|


Q S E. Q S E. Q S E. E E. E.
------------------------|-------------------------|
------------------------|-------------------------|
------------------------|-------------------------|
-------------9----L-----|--7----L-----------------|
--7----L-7----------7---|---------7---7--9---10---|
------------------------|-------------------------|


Q S E Q. E S Q S E H S
----------------------------|-----------------------|
----------------------------|-----------------------|
----------------------------|-----------------------|
--12-----L-10--10------9--9-|--L----L-7--7--------L-|
----------------------------|-----------------------|
----------------------------|-----------------------|


W H. Q H H
--------------------|--------------------|--9--------11--------|
--------------------|--------------------|---------------------|
--------------------|--------------------|---------------------|
--9~----------------|--L-----------------|---------------------|
--------------------|--------------------|---------------------|
--------------------|--------------------|---------------------|


Q. S E. E. E. S S H. E
--12-------L-12---11---9---|--7h-9p-7------------L--|
---------------------------|------------------------|
---------------------------|------------------------|
---------------------------|------------------------|
---------------------------|------------------------|
---------------------------|------------------------|


H E E. E. Q S E Q Q S Q Q H
--L-----------5---4---|--7----L-5--5----L----L-|--L----L----7--------|
----------------------|------------------------|---------------------|
----------------------|------------------------|---------------------|
----------------------|------------------------|---------------------|
----------------------|------------------------|---------------------|
----------------------|------------------------|---------------------|


W H. Q H H
--2----------------|--L-----------------|----------------------|
-------------------|--------------------|--14--------16--------|
-------------------|--------------------|----------------------|
-------------------|--------------------|----------------------|
-------------------|--------------------|----------------------|
-------------------|--------------------|----------------------|


Q. S E. E. E. Q S E Q Q S
--16-------L-16---14--------|--19-----L--------------------|
-----------------------17---|-----------16--16-----L-----L-|
----------------------------|------------------------------|
----------------------------|------------------------------|
----------------------------|------------------------------|
----------------------------|------------------------------|


H. S E. Q S E. Q S E.
------------------19---|--19-----L---------------19---|
---L-------------------|-----------17---17-----L------|
-----------------------|------------------------------|
-----------------------|------------------------------|
-----------------------|------------------------------|
-----------------------|------------------------------|


Q S E. Q S. S. S Q S. S. Q S E. S
--19-----L------------19s-21s-19-|---L----16s-17s-16-----L-14---16-|
-----------17---17---------------|---------------------------------|
---------------------------------|---------------------------------|
---------------------------------|---------------------------------|
---------------------------------|---------------------------------|
---------------------------------|---------------------------------|


Q. H E E E E E E E E E E E Q
---L------16b---------L--|--------------------------------------|
-------------------------|--------------------------------------|
-------------------------|--------------------------------4~----|
-------------------------|-----------4--5--4-----4--5--7--------|
-------------------------|--7--6--7-----------7-----------------|
-------------------------|--------------------------------------|


E E E E E E Q Q Q
-----------------------------------|
-----------------------------------|
--4--5--4-----4--------------------|
-----------7-----7-----------------|
--------------------7----9----7----|
-----------------------------------|


E E E E E E E E E E Q
--------------------------------------|
--------------------------------------|
--------------------------------------|
--------------4--2--0--2--4--5--7~----|
--5--4--5--7--------------------------|
--------------------------------------|


E E E E E E Q Q Q
-----------------------------------|
-----------------------------------|
-----------------------------------|
--7--9--7--5--7--5-----------------|
--------------------5----7----5----|
-----------------------------------|


E E E E E E E E E E Q
--------------------------------------|
--------------------------------------|
--------------------------------------|
--------------2--0-----0--2--4--5~----|
--3--2--3--5--------3-----------------|
--------------------------------------|


E E E E E E Q Q Q H H
-----------------------------------|--------------------|
-----------------------------------|--------------------|
-----------------------------------|--------------------|
--5--7--5--4--5--4-----------------|--------------------|
--------------------3----5----3----|--2--------3--------|
-----------------------------------|--------------------|


H H E E E E E E E E E E Q
--------------------|--------------------------------------|
--------------------|--------------------------------------|
--------------------|--------------------------------4~----|
--------------------|-----------4--5--4-----4--5--7--------|
--2--------3--------|--7--6--7-----------7-----------------|
--------------------|--------------------------------------|


E E E E E E Q Q Q
-----------------------------------|
-----------------------------------|
--4--5--4-----4--------------------|
-----------7-----7-----------------|
--------------------7----9----7----|
-----------------------------------|


E E E E E E E E E E Q
--------------------------------------|
--------------------------------------|
--------------------------------------|
--------------4--2--0--2--4--5--7~----|
--5--4--5--7--------------------------|
--------------------------------------|


E E E E E E Q Q Q
-----------------------------------|
-----------------------------------|
-----------------------------------|
--7--9--7--5--7--5-----------------|
--------------------5----7----5----|
-----------------------------------|


E E E E E E E E E E Q
--------------------------------------|
--------------------------------------|
--------------------------------------|
--------------2--0-----0--2--4--5~----|
--3--2--3--5--------3-----------------|
--------------------------------------|


E E E E E E Q Q Q H H
-----------------------------------|--------------------|
-----------------------------------|--------------------|
-----------------------------------|--------------------|
--5--7--5--4--5--4-----------------|--------------------|
--------------------3----5----3----|--2--------3--------|
-----------------------------------|--------------------|


H H
--------------------|
--------------------|
--------------------|
--------------------|
--2--------3--------|
--------------------|


E E E E E E E E E E E E
--16--14------------------------------------------|
----------17--16--17--16--17--16--14------14------|
--------------------------------------16------16--|
--------------------------------------------------|
--------------------------------------------------|
--------------------------------------------------|


E E E E E E E E E E Q
------------------------------------------------|
--14--------------------------------------------|
------16--13------13------13--------------------|
--------------16------16------16--14--16--14----|
------------------------------------------------|
------------------------------------------------|


E E E E E E E E E E E E
--19--17--16--17--16------16----------------------|
----------------------19------19--17--19--17--16--|
--------------------------------------------------|
--------------------------------------------------|
--------------------------------------------------|
--------------------------------------------------|


E E E E E E E E E E Q
------------------------------------------------|
--17--16------16--------------------------------|
----------18------18--16--18--16--14--16--14----|
------------------------------------------------|
------------------------------------------------|
------------------------------------------------|


H Q Q H Q E E
--19--------11----19----|--19--------11----19s--21s--|
------------------------|----------------------------|
------------------------|----------------------------|
------------------------|----------------------------|
------------------------|----------------------------|
------------------------|----------------------------|


Q E E Q E E H H
--19----16s--17s--16----14--16--|---L--------17--------|
--------------------------------|----------------------|
--------------------------------|----------------------|
--------------------------------|----------------------|
--------------------------------|----------------------|
--------------------------------|----------------------|


E E E E E E E E E E E E
--16--14------------------------------------------|
----------17--16--17--16--17--16--14------14------|
--------------------------------------16------16--|
--------------------------------------------------|
--------------------------------------------------|
--------------------------------------------------|


E E E E E E E E E E Q
------------------------------------------------|
--14--------------------------------------------|
------16--13------13------13--------------------|
--------------16------16------16--14--16--14----|
------------------------------------------------|
------------------------------------------------|


E E E E E E E E E E E E
--19--17--16--17--16------16----------------------|
----------------------19------19--17--19--17--16--|
--------------------------------------------------|
--------------------------------------------------|
--------------------------------------------------|
--------------------------------------------------|


E E E E E E E E E E Q
------------------------------------------------|
--17--16------16--------------------------------|
----------18------18--16--18--16--14--16--14----|
------------------------------------------------|
------------------------------------------------|
------------------------------------------------|


H E E E E H Q E E
--19--------11--17b--17b--17b--|---L--------11----19s--21s--|
-------------------------------|----------------------------|
-------------------------------|----------------------------|
-------------------------------|----------------------------|
-------------------------------|----------------------------|
-------------------------------|----------------------------|


Q E E Q E E H H
--19----16s--17s--16----14--16--|---L--------16b--------|
--------------------------------|-----------------------|
--------------------------------|-----------------------|
--------------------------------|-----------------------|
--------------------------------|-----------------------|
--------------------------------|-----------------------|


W Q. S E. E. E. W
--------------------|------------------------|--------------------|
--------------------|------------------------|--------------------|
--------------------|------------------------|--------------------|
--------------------|------------------------|--------------------|
--7~----------------|--L--------7---9---10---|--7~----------------|
--------------------|------------------------|--------------------|


Q. S E. E. E. Q S E Q. E S
------------------------|----------------------------|
------------------------|----------------------------|
------------------------|----------------------------|
------------------------|--12-----L-10--10------9--9-|
--L--------7---9---10---|----------------------------|
------------------------|----------------------------|


Q E. H S H E E. E.
----------------------|----------------------|
----------------------|----------------------|
----------------------|----------------------|
--L----L---7--------L-|--9--------L--7---5---|
----------------------|----------------------|
----------------------|----------------------|


E E E E E E E E H W
-------------------------------------------|--------------------|
-------------------------------------------|--------------------|
-------------------------------------------|--------------------|
--4h--5p--4h--5p--4h--5p--4h--5p--4--------|--------------------|
-------------------------------------------|--7~----------------|
-------------------------------------------|--------------------|


Q. S E. E. E. W
------------------------|--------------------|
------------------------|--------------------|
------------------------|--------------------|
------------------------|--------------------|
--L--------7---9---10---|--7~----------------|
------------------------|--------------------|


Q. S E. E. E. Q S E Q. E S
------------------------|----------------------------|
------------------------|----------------------------|
------------------------|----------------------------|
------------------------|--12-----L-10--10------9--9-|
--L--------7---9---10---|----------------------------|
------------------------|----------------------------|


Q E. Q. S S S H. E E
--------------------------|----------------------|
--------------------------|----------------------|
--------------------------|----------------------|
--L----L---7------L-9p-7h-|--9------------7------|
--------------------------|------------------10--|
--------------------------|----------------------|


H Q. E W
---------------------|-------------------|-------------------|
---------------------|-------------------|-------------------|
---------------------|-------------------|-------------------|
---------------------|-------------------|-------------------|
--9--------7------6--|--7----------------|-------------------|
---------------------|-------------------|-------------------|


-------------------|-------------------|-------------------|
-------------------|-------------------|-------------------|
-------------------|-------------------|-------------------|
-------------------|-------------------|-------------------|
-------------------|-------------------|-------------------|
-------------------|-------------------|-------------------|


-------------------|-------------------||
-------------------|-------------------||
-------------------|-------------------||
-------------------|-------------------||
-------------------|-------------------||
-------------------|-------------------||




Duration Legend
---------------
W - whole
H - half
Q - quarter
E - 8th
S - 16th
T - 32nd
X - 64th
. - note dotted
|-n-| - n-tuplets


Tablature Legend
----------------
L - tied note
x - dead note
g - grace note
(n) - ghost note
> - accentuded note
NH - natural harmonic
AH - artificial harmonic
TH - tapped harmonic
SH - semi harmonic
PH - pitch harmonic
h - hammer on
p - pull off
b - bend
br - bendRelease
pb - preBend
pbr - preBendRelease
brb - bendReleaseBend
n/ - tremolo bar dip
n - tremolo bar dive
-/n - tremolo bar Release up
/n - tremolo bar inverted dip
/n - tremolo bar return
-n - tremolo bar Release down
S - shift slide
s - legato slide
/ - slide into from below or out of upwards
- slide into from above or out of downwards
~ - vibrato
W - wide vibrato
tr - trill
TP - tremolo picking
T - tapping
S - slap
P - pop
< - fade in
^ - brush up
v - brush down



¡Siguiente!

Toca una Canción al Azar de La Caja De Pandora




Aún no hay comentarios, ¡escribe el primero!

Escribe un comentario o pregunta sobre esta canción:




Más canciones de La Caja De Pandora

Incierta Sociedad
El cielo en dos
A nuestra vida otro sentio
Cuéntame
Isla de Palma
Niña
Mi Barrio
Por hacerte sonreír
Al olor de nuestro incienso
Más cerca del Sol
Peinas el aire
Donde te escondes
7 de marzo
Lo quiero saber
Sin miedo a la verdad
Una de cal y una de arena
Como te ha ido
Entre el vendabal
Piérdete
Acuérdate bien de mi cara

Siguiente


ABRIR ACORDES

Nuestro servidor se demoró 0.03 segundos en generar esta página. Eso fue realmente muy rápido!