Mareo
La Franela
Acordes

Subida por marcelomenia


Más Versiones
Ver. 2 Ver. 3

Cambiar Cifrado
Americano Latino

Cambiar Tonalidad
-1 +1

Partir Pantalla Imprimir FAQ

+A
-A


Ver solo la LETRA
Principio con maquinas

Intro

C G/B F C Fm C D G
e.-------------------------------------
B.-------------------------------------
G.------------------------------------- dos
D.---0-2-----0----------3--2--0--5-5--- veces
A.-3-----2-3---0-2-3-------------------
E.-------------------3-----------------

C G/B F
Cuando te veo llorar,
C Fm C D G
mi mar vuelve a agitarse y me mareo
C G/B F C
le pido al sol que vos, por mí,
Fm C D G
quieras reír el muelle entero.

Fm C
La noche es todo, mi amor,
Fm C
y no podemos ahogarla

C5 B5 Am C
Ni en el llanto ni en el dolor
Fm C
somos lo que te pasa.

C5 B5 Am C
Ni en el llanto ni en el dolor
Fm C
somos

Intro x2 con ataque de púas de fondo

C G/B F C Fm C D G
e.-20-19--17-15-16-15-14-15

(cada nota con ataque de púa)

C G/B F
Cuando te veo llegar,
C Fm C D G
mi bar vuelve a alegrarse y me mareo
C G/B F C
le pido al ron que vos, por mí,
Fm C D G
quieras reír el día entero.

Fm C
La noche es todo, mi amor,
Fm C
y no podemos ahogarla

C5 B5 Am C
Ni en el llanto ni en el dolor
Fm C
somos lo que te pasa.

C5 B5 Am C
Ni en el llanto ni en el dolor
Fm C
somos

Solo
C G/B F C Fm
e.-------------------------------
B.-------------------------------
G.---------------5---------------
D.-------2-5-5/7---7-5-5/6-8-6-5-
A.-2/3-5-------------------------
E.-------------------------------

(Una guitarra puede hacer el grave y otra
el agudo... ustedes decidirán)
Esto lo hace la guitarra...
02:29
D G
e.---------
B.---------
G.-0-2-----
D.---------
A.-----3-2-
E.---------

LOS OTROS INSTRUMENTOS HACEN ESTO
02:29
D G
e.---------
B.-----1-0-
G.-0-2-----
D.---------
A.---------
E.---------

C G/B F C Fm
e.---------------------------
B.---------------------------
G.-5-7-5-4-2-4-2-------------
D.---------------5-5/6-8-6-5-
A.-3-5-3-2-0-2-0-------------
E.---------------3-3/4-6-4-3-

D G D G
e.--------- e.---------
B.--------- B.-----1-0-
G.-0-2----- G.-0-2-----
D.--------- ó D.---------
A.-----3-2- A.---------
E.--------- E.---------

F5 - C5

e.-------5-----3-1-3-1-0
B.----------------------
G.----------------------
D.----------------------
A.-3-2-0----------------
E.---------5-3----------

e.-------5-----3-1-11-13-
B.-----------------------
G.-----------------------
D.-----------------------
A.-3-2-0-----------------
E.---------5-3-----------

C G/B F
Cuando te veo llorar,
C Fm C D G
mi mar vuelve a agitarse y me mareo
C G/B F C
le pido al sol que vos, por mí,
Fm C D G
quieras reír el muelle entero.

C G/B F
Cuando te veo llegar,
C Fm C D G
mi bar vuelve a alegrarse y me mareo
C G/B F C
le pido al ron que vos, por mí,
Fm C D G
quieras reír el día entero.

Solo N°2 Sin Acordes y Silbado

"La tristesse est finie,
la mélancolie est finie,
le silence est fini"


ACORDES PARA GUITARRA

PIANO UKELELE
C
G/B
F
Fm
D
G
C5
B5
Am
F5


COMENTARIOS

Aún no hay comentarios,

¡escribe el primero!

Escribe una pregunta, duda o comentario sobre esta canción, te responderemos a la brevedad.

Las más tocadas de La Franela

Toca una Canción al Azar de La Franela
C
G/B
F
Fm
D
G
C5
B5
Am
F5