c ▷ EL FANGO DEL DOLOR: (La Ñonga) Acordes para Guitarra, Piano & Ukelele

El fango del dolor (Acordes)

La Ñonga

Subida por joell27

Compartir


Imprimir FAQ
+A
-A

Texto

Desplazamiento

Transportador

Color de Fondo

Archivos

-A
+A
El Riff 1 se toca con Am, el Riff 2 con Dm y F y el Riff 3 con G.

Riff 1
  
e|---------------------|
B|---10-12/13-13-12-13-|
G|-9-------------------|

Riff 2

e|----------------------|
B|----10-12/13-13-12-13-|
G|-10-------------------|

Riff 3

e|----------------------|
B|----12-13/15-13-12-10-|
G|-12-------------------|



  Am                     Dm
e|---------------------|----------------------|
B|---10-12/13-13-12-13-|----10-12/13-13-12-13-|
G|-9-------------------|-10-------------------|

    F                     G
e|----------------------|----------------------|
B|----10-12/13-13-12-13-|----12-13/15-13-12-10-|
G|-10-------------------|-12-------------------|


 Am                     Dm
e|---------------------|----------------------|
B|---10-12/13-13-12-13-|----10-12/13-13-12-13-|
G|-9-------------------|-10-------------------|

    F                     G
e|----------------------|----------------------|
B|----10-12/13-13-12-13-|----12-13/15-13-12-10-|
G|-10-------------------|-12-------------------|

 Am                     Dm
e|---------------------|----------------------|
B|---10-12/13-13-12-13-|----10-12/13-13-12-13-|
G|-9-------------------|-10-------------------|

    F                     G
e|----------------------|----------------------|
B|----10-12/13-13-12-13-|----12-13/15-13-12-10-|
G|-10-------------------|-12-------------------|

Am           Dm   
  Mi corazón nunca perdió
F           G
  En las batallas del amor
Am             Dm
  Nunca lloró, nunca rogó
F         G
  Hasta que llegaste tú

Am          Dm
  Como sufrí solo y sin ti
F         G
  En el fango del dolor
Am              Dm 
  Yo sin tu amor, solo estoy
F         G
  Todo por esta mi pasión

C             G           F        
  Y sigo esperando que tú vengas a mi
         Fm                   C
  Que me saques de aquí y seguir
         G        F 
  Yo mirando esa luna y el sol
        Fm                  C
  De tu risa y tu voz y seguir
           G           F   Fm
  Junto a ti, junto a ti


  Am                     Dm
e|---------------------|----------------------|
B|---10-12/13-13-12-13-|----10-12/13-13-12-13-|
G|-9-------------------|-10-------------------|

    F                     G
e|----------------------|----------------------|
B|----10-12/13-13-12-13-|----12-13/15-13-12-10-|
G|-10-------------------|-12-------------------|


 Am                     Dm
e|---------------------|----------------------|
B|---10-12/13-13-12-13-|----10-12/13-13-12-13-|
G|-9-------------------|-10-------------------|

    F                     G
e|----------------------|----------------------|
B|----10-12/13-13-12-13-|----12-13/15-13-12-10-|
G|-10-------------------|-12-------------------|


Am                 Dm
  Quiero encontrar, quiero yo entrar
F          G
  Meterme dentro de tu ser
Am          Dm
  Para saber, para creer
F           G 
  Que tú me amas a mi también.

Am                  Dm
  Quisiera encontrar, tu debilidad
F           G
  Algo que me haga seguir
Am               Dm
  Por siempre así, junto yo a ti
F         G
  No separarme más de ti


C             G           F        
  Y sigo esperando que tú vengas a mi
         Fm                   C
  Que me saques de aquí y seguir
         G        F 
  Yo mirando esa luna y el sol
        Fm                  C
  De tu risa y tu voz y seguir

             G           F        
  Y sigo esperando que tú vengas a mi
         Fm                   C
  Que me saques de aquí y seguir
         G        F 
  Yo mirando esa luna y el sol
        Fm                  C
  De tu risa y tu voz y seguir
           G           F   Fm
  Junto a ti, junto a ti
 

  Am                     Dm
e|---------------------|----------------------|
B|---10-12/13-13-12-13-|----10-12/13-13-12-13-|
G|-9-------------------|-10-------------------|

    F                     G
e|----------------------|----------------------|
B|----10-12/13-13-12-13-|----12-13/15-13-12-10-|
G|-10-------------------|-12-------------------|


 Am                     Dm
e|---------------------|----------------------|
B|---10-12/13-13-12-13-|----10-12/13-13-12-13-|
G|-9-------------------|-10-------------------|

    F                     G
e|----------------------|----------------------|
B|----10-12/13-13-12-13-|----12-13/15-13-12-10-|
G|-10-------------------|-12-------------------|

Video Clip de El fango del dolor


ACORDES PARA GUITARRA

PIANO UKELELE
Am
Dm
F
G
C
Fm


TOP 20: Las más tocadas de La Ñonga


Toca una Canción al Azar de La Ñonga

Acordes

Cerrar
Am
Dm
F
G
C
Fm

20.49

x

70