Hasta mi último día (Acordes)

La Original Banda Limón

Subida por eliasib

Compartir


Imprimir FAQ
+A
-A

Texto

Desplazamiento

Transportador

Color de Fondo

Archivos

-A
+A
Te amare hasta mi último día.

INTRO:

    C#           Fm
e|---------------------------------|
B|-/11-9-9-8-8-9---/11-9-9-8-8-9---|
G|---------------------------------|
D|---------------------------------|
A|---------------------------------|
E|---------------------------------|

                Bbm7            Eb
e|---------------------------------8-11--|
B|------9-11-11/13-11-9-9-8-9----9-------|
G|-8-10-----------------------10---------|
D|---------------------------------------|
A|---------------------------------------|
E|---------------------------------------|


            G#                  Cm
Como una estrella llegaste a mi vida
      C#            C#m            G#   Cm
desnudaste con una mirada mi fantasía.

      G#              Cm
Aquel beso que pude robarte
     C#                C#m
aclaro mi destino, tú fuiste el camino
 Bbm7      Eb   Eb7
para recuperarme.

         G#
En tus brazos no siento el peligro
       Fm
en tus ojos encontré el alivio
      Bbm7                             Eb
en tus alas quiero descubrir que sigo vivo.

       G#
Te amare no importa lo que digan
      Fm
te amare aunque me cueste la vida
      Bbm7
te amare aunque quieran separarnos
             Eb
gritare mil veces que tú eres mía.

       G#
Te amare no importa lo que digan
      Fm
te amare aunque me cueste la vida
      Bbm7
te amare aunque quieran separarnos
             Eb
gritare mil veces que tú eres mía.


      Bbm7  Eb
Te amare
                 C#  Fm  G#
hasta mi último día.


INTERMEDIO:

    C#           Fm
e|---------------------------------|
B|-/11-9-9-8-8-9---/11-9-9-8-8-9---|
G|---------------------------------|
D|---------------------------------|
A|---------------------------------|
E|---------------------------------|

                Bbm7            Eb
e|---------------------------------8-11--|
B|------9-11-11/13-11-9-9-8-9----9-------|
G|-8-10-----------------------10---------|
D|---------------------------------------|
A|---------------------------------------|
E|---------------------------------------|

            G#                  Cm
Como una estrella llegaste a mi vida
      C#            C#m            G#   Cm
desnudaste con una mirada mi fantasía.

      G#              Cm
Aquel beso que pude robarte
     C#                C#m
aclaro mi destino, tú fuiste el camino
 Bbm7      Eb   Eb7
para recuperarme.

         G#
En tus brazos no siento el peligro
       Fm
en tus ojos encontré el alivio
      Bbm7                             Eb
en tus alas quiero descubrir que sigo vivo.

       G#
Te amare no importa lo que digan
      Fm
te amare aunque me cueste la vida
      Bbm7
te amare aunque quieran separarnos
             Eb
gritare mil veces que tú eres mía.

       G#
Te amare no importa lo que digan
      Fm
te amare aunque me cueste la vida
      Bbm7
te amare aunque quieran separarnos
             Eb
gritare mil veces que tú eres mía.


      Bbm7  Eb
Te amare
                 C#  Fm  G#
hasta mi último día.


Video Clip de Hasta mi último día


ACORDES PARA GUITARRA

PIANO UKELELE
C#
Fm
Bbm7
Eb
G#
Cm
C#m
Eb7


TOP 20: Las más tocadas de La Original Banda Limón


Acordes

Cerrar
C#
Fm
Bbm7
Eb
G#
Cm
C#m
Eb7

04.22

x

81