Sangra la ciudad (Acordes)

La Posta RnR

Subida por EROPhellut

Compartir


Imprimir FAQ
+A
-A

Texto

Desplazamiento

Transportador

Color de Fondo

Archivos

-A
+A
intro: E / G#m / C#m / A / B

E--------------------------------------------------------
A-7--7--7---------------------------------------------7--
D---------6--------6-----6--------------------------6----  X2
G------------4-6-4---4------4-----------6---6-4-6-4------
B------------------------------5-5-5-5-4--4--------------
E--------------------------------------------------------

este es un pequeño "riff" vamos a llamarlo asi,
q hace una segunda guitara mientras hace A y B

E--------------------------------------------------------
A--------------------------------------------------------
D--------------------------------------------------------
G--------6-----6---4-------------------------------------
B---5--4----4--------------------------------------------
E--------------------------------------------------------



       E                  G#m    C#m
Hoy veo hambre de vida en este lugar,
        A     (riff)             B
se cierran las heridas, de un viejo pasar.
     E               G#m        C#m
En un tiempo perdido vuelvo a empezar,
       A    (riff)           B
demasiado tiempo lo deje sangrar.

    C#m          G#m
En la fantasía de una verdad,
   A                     F#m
suenan las sirenas y el dolor.
  C#m              G#m
Vuelve a empezar y la ciudad
 A               B
no para de sangrar.

Estribillo:

         A            E
La herida está abierta,
    A          E
y bien profunda,
 A            B
déjala sangrar.

       A         E
Se cae a pedazos,
   A           E
y en un segundo,
A                   B
se vuelve a levantar.

sangra la ciudad...

E / C#m / G#m / A / X2

INTRO


A la deriva de la noche la muerte encontrás,
y en cada esquina un reproche llegará.
Este delirio me lleva como un vendaval,
y con la brisa del viento me dejo escapar.

En la fantasía de una verdad...

_____________________________________________
______________LA POSTA RNR___________________


Cualquier consulta o algun otro tema de la posta
escribir a : [email protected]

TRANSCRIPCION ECHA POR: ARIEL VELAZQUEZ

BUENO ES MI PRIMERA TRANSCRIPCION
SON LOS TONOS ORIGINALES
ESPERO Q LES GUSTE EN ESPECIAL A TODOS LOS POSTEROS!

AGUANTE LA POSTA RNR! Y AGUANTE LOS BORBOTONES!
UN ABRAZO!!!


Video Clip de Sangra la ciudad


ACORDES PARA GUITARRA

PIANO UKELELE
E
G#m
C#m
A
B
F#m
A


TOP 20: Las más tocadas de La Posta RnR


Acordes

Cerrar
E
G#m
C#m
A
B
F#m
A

18.25

x

79