Un Lugar (Acordes)

La Santa (Uruguay)

Subida por Escipion

Compartir


Cambiar Cifrado
Americano Latino

Cambiar Tonalidad
-1 +1
Imprimir FAQ
+A
-A

Texto

Desplazamiento

Transportador

Color de Fondo

Archivos

TONALIDAD, TAMAÑO, CIFRADO, SCROL.

Nos renovamos: Ahora puedes cambiar TODO haciendo clic en ICONO de la Guitarra () que aparece en la parte inferior de esta página.


LETRA CON ACORDES

Intro: D - A - Bm - G (x4)

E|----------------------------------|
B|-3-3-3-3-2-2-3-2-3-2-0--3-2-0-3-0-|

E|----------------------------|
B|-3-3-3-3-5-5-3-2-0-2-3--0-2-|

E|-2-2-2-2-----2---2----------------|
B|---------5-5---5---5-3--3-2-0-3-0-|

E|-----------------------------|
B|--3-3-3-3-5-5-3-2-0-2-3--0-2-|

       A        Bm           G
Buscaré un lugar, que le de vida a mi razón,
D      A      Bm   G
sin colores grises.
   D            A       Bm        G
Un canto de ciudad un grito de revolución,
  D     A      Bm
para sentirme vivo.

pase coro : G - A

coro:
  D        A      Bm   G
Y BUSCARÉ, OTRO LUGAR
 D              A        Bm     G
DONDE EL CIELO CUBRA MI VEREDA
  D        A      Bm    G
Y BUSCARÉ, OTRO LUGAR
D               A        Bm    G
DONDE EL CIELO CUBRA MI VEREDA

    D - A - Bm - G (X4)

E|----------------------------------|
B|-3-3-3-3-2-2-3-2-3-2-0--3-2-0-3-0-|

E|----------------------------|
B|-3-3-3-3-5-5-3-2-0-2-3--0-2-|

E|-2-2-2-2-----2---2----------------|
B|---------5-5---5---5-3--3-2-0-3-0-|

E|-----------------------------|
B|--3-3-3-3-5-5-3-2-0-2-3--0-2-|

D           A            Bm             G
Cuando las luces, se enciendan frente a mí,
D        A       Bm   G
en esta noche oscura.
D               A       Bm           G
Yo volveré a soñar, contigo una vez más,
D           A         Bm
Sueños que vuelven a mí...

pase de coro : G - A

coro:
  D        A      Bm   G
Y BUSCARÉ, OTRO LUGAR
 D              A        Bm     G
DONDE EL CIELO CUBRA MI VEREDA
  D        A      Bm    G
Y BUSCARÉ, OTRO LUGAR
D               A        Bm    G
DONDE EL CIELO CUBRA MI VEREDA

solo:  D - A - Bm - G (X3)
       D - A - B  -D-D#


G|-9(10)-9(10-9)-7-9-9(10)-7---7-------------------|
D|---------------------------9---9-0L2L0L2L0L2L0L2-|

B|-----------------10-10(11)(11-10)-------------------|
G|-9(10)-9(10-9)-7------------------9-7-9L7L9L7L9L7L9-|

E|-13(14)-13(14-13)-10-12-13(14)-10-12(13-12)-
B|--------------------------------------------12

-13(14)-15-13(14-13)-10-12----10L12L10-12 hasta ahi lo saque jajaj:/
---------------------------12-            despues hace 15-16 y arranca
                                          el coro subido un tono
coro:
  E        B     D#m   A
Y BUSCARÉ, OTRO LUGAR
 E              B        D#m     A
DONDE EL CIELO CUBRA MI VEREDA
  E        B      D#m    A
Y BUSCARÉ, OTRO LUGAR
E               B       D#m    A
DONDE EL CIELO CUBRA MI VEREDA

   E - B - D#m - A (X4)

E|----------------------------------|
B|-5-5-5-5-4-4-5-4-5-4-2--5-4-2-5-2-|

E|----------------------------|
B|-5-5-5-5-7-7-5-4-2-4-5--2-4-|

E|-4-4-4-4-----4---4----------------|
B|---------7-7---7---7-5--5-4-2-5-2-|

E|-------------------------|
B|--5-5-5-5--7--7--5--5--2-|


Video Clip de Un Lugar


ACORDES PARA GUITARRA

PIANO UKELELE
D
A
Bm
G
B
D#
E
D#m


TOP 20: Las más tocadas de La Santa (Uruguay)


Acordes

Cerrar
D
A
Bm
G
B
D#
E
D#m

09.37

x

80