Ya se ha muerto mi abuelo (Acordes)

La Sarita

Subida por elgrillo2020

Compartir


Cambiar Cifrado
Americano Latino

Cambiar Tonalidad
-1 +1
Imprimir FAQ
+A
-A

Texto

Desplazamiento

Transportador

Color de Fondo

Archivos

TONALIDAD, TAMAÑO, CIFRADO, SCROL.

Nos renovamos: Ahora puedes cambiar TODO haciendo clic en ICONO de la Guitarra () que aparece en la parte inferior de esta página.


LETRA CON ACORDES

Cover de Juaneco y su combo por la sarita.

Intro:


e|-5-5---5-5---5-5----------
B|-6-6---6-6---6-6----------
G|-7-7---7-7---7-7----------
D|-7-7---7-7---7-7----------
A|-5-5---5-5---5-5----------
E|-5-5---5-5---5-5----------

e|-----------------------------
B|-----------------------------
G|------------0-2-2-2-2-0s2s0--   (x4)
D|--0-0-0-0-2------------------
A|-----------------------------
E|-----------------------------


Riff Principal:

e|--1--1--5--0--3---|     |---3---3-------0-3-0---
B|-3--3-----------3-|     |-1---1---1-1-1-------3-
G|------------------|(x3) |-----------------------(x4)
D|------------------|     |-----------------------
A|------------------|     |-----------------------
E|------------------|     |-----------------------

Guitarra acompañamiento:

e|--5-5-5-5--------|      |-3-3--5-5-----|
B|--5-5-6-6--------|      |-5-5--6-6-----|
G|--6-6-7-7--------|(x3)  |-5-5--7-7-----| (x4)
D|--7-7-7-7--------|      |-5-5--7-7-----|
A|--7-7-5-5--------|      |-3-3--5-5-----|
E|--5-5-5-5--------|      |-3-3--5-5-----|

acorde final intro:

e|-7-|
B|-6-|
G|-5-|
D|-7-|
A|-5-|
E|-5-|


Dm               A
Ya se ha muerto mi abuelo ayayay
Dm               A
Ya se ha muerto mi abuelo ayayay
Dm          A
Tomando trago
Dm          A
Tomando masato

Dm
olelolayyy olelolayy
Dm
olelolayyy olelolayy

C        Dm
olelolaa lelolaa
C        Dm
olelolaa lelolaa

INTRO.

Dm               A
Ya se ha muerto mi abuelo ayayay
Dm               A
Ya se ha muerto mi abuelo ayayay
Dm          A
Tomando trago
Dm          A
Tomando masato

Dm
olelolayyy olelolayy
Dm
olelolayyy olelolayy

C        Dm
olelolaa lelolaa
C        Dm
olelolaa lelolaa


PUENTE:

e|----------------------------------------------------|
B|----------------------------------------------------|
G|------------------------------------2-----------2---|
D|-----------4-----------4--0-0-0-0-3---0-0-0-0-3-----| X2
A|-0-0-0-0-2---0-0-0-0-2------------------------------|
E|----------------------------------------------------|


e|--5-5-5-5--------|
B|--5-5-6-6--------|
G|--6-6-7-7--------|
D|--7-7-7-7--------|
A|--7-7-5-5--------|
E|--5-5-5-5--------|


practicamente esa es toda la cancion
disfrutenla

pero con moderacion ;)


-PollEX-


Video Clip de Ya se ha muerto mi abuelo


ACORDES PARA GUITARRA

PIANO UKELELE
Dm
A
C


TOP 20: Las más tocadas de La Sarita


Toca una Canción al Azar de La Sarita

Acordes

Cerrar
Dm
A
C

10.04

x

67