Come on (Acordes)

La Secta

Subida por jvorts270465

Compartir


Imprimir FAQ
+A
-A

Texto

Desplazamiento

Transportador

Color de Fondo

Archivos

-A
+A
Alberto

segunda guitarra
afinación:bemol
distorción


---------------------------------------------------
---------------------------------------------------
---------------------------------------------------
-5555----------------------------------------------x8
-3333-5555--3333--3-3-3-3-3-3-3--------------------
------3333--1111--1-0-1-0-1-0-1--------------------
wouw wouw wouw

---------------------------------------------------
---------------------------------------------------
---------------------------------------------------
-5------------------------------------------------5
-3--------------------feedback--------------------3
---------------------------------------------------
Cuantos vienen cuantos van este mes que va a pasar...


----------------------------------------------------
----------------------------------------------------
----------------------------------------------------
-55-xxxx--------------------------------------------
-33-xxxx--55-xxxx-----------------------------------
----------33-xxxx--1-0-1-0--------------------------
quiero ver a otro pues no quiero trabajar pues como quiera
me van a botar, mama me repite que debo ahorar...

------------------------------------------------
------------------------------------------------
------------555-444----------------555-444--7---
-2---4--5---333-222-5-----2---4-5--333-222--5---
-0---2--3-----------3-----0---2-3---------------
------------------------------------------------
y ese cuento que no acaba pues comiesa cada mañana

---------------------------------------------------
---------------------------------------------------
---------------------------------------------------
-5555----------------------------------------------x3
-3333-5555--3333--3-3-3-3-3-3-3--------------------
------3333--1111--1-0-1-0-1-0-1--------------------
Algunos quieren pero no pueden, algunos pueden pero
deben.

---------------------------------------------------
---------------------------------------------------
---------------------------------------------------
-5------------------------------------------------5
-3--------------------feedback--------------------3
---------------------------------------------------
todos quieren gobernar, nuestras mentes controlar
para lo que hiso el otro ellos destrosar

----------------------------------------------------
----------------------------------------------------
----------------------------------------------------
-55-xxxx--------------------------------------------
-33-xxxx--55-xxxx-----------------------------------
----------33-xxxx--1-0-1-0--------------------------
aunque no lo tengan en el pecho...
------------------------------------------------
------------------------------------------------
------------555-444----------------555-444--7---
-2---4--5---333-222-5-----2---4-5--333-222--5---
-0---2--3-----------3-----0---2-3---------------
------------------------------------------------
y ese cuento no termina, no se anestecia con medicina

---------------------------------------------------
---------------------------------------------------
---------------------------------------------------
-5555----------------------------------------------x8
-3333-5555--3333--3-3-3-3-3-3-3--------------------
------3333--1111--1-0-1-0-1-0-1--------------------
Algunos quieren pero no pueden, algunos pueden pero
deben.

------------------------------------------------
------------------------------------------------
------------555-444----------------555-444--7---
-2---4--5---333-222-5-----2---4-5--333-222--5---
-0---2--3-----------3-----0---2-3---------------
------------------------------------------------


----------------------------------------------------
----------------------------------------------------
----------------------------------------------------
-55-xxxx--------------------------------------------
-33-xxxx--55-xxxx-----------------------------------
----------33-xxxx--1-0-1-0--------------------------
Algunos tienen picinas, dentro de sus oficinas
mansiones y carros nuevos,saliendo con las modelos
algunos queremos todo y todos tenemos nada yo solo
quiero tener hasta la manana algunos pueden pero no
pueden algunos pueden pero no deben
-------------------
-------------------
-------------------
-5-----------------  aguantar nota por un rato
-3-----------------    y volver a repetir
-------------------
no deben, no deben, no deben
---------------------------------------------------
---------------------------------------------------
---------------------------------------------------
-5555----------------------------------------------
-3333-5555--3333--3-3-3-3-3-3-3--------------------
------3333--1111--1-0-1-0-1-0-1--------------------
no deben  come on , no deben come on
algunos quieren pero no pueden algunos pueden pero
no deben, algunos quieren pero no pueden, algunos pueden
pero no deben  wouw wouw wouww

---------------------------------
---------------------------------
---------------------------------
-55------------------55----------
-33--55--33-3-3-3-3--33----------
-----33--11-1-0-1-0--------------


Video Clip de Come on


ACORDES PARA GUITARRA

PIANO UKELELE


TOP 20: Las más tocadas de La Secta


Toca una Canción al Azar de La Secta

Acordes

Cerrar

13.41

x

59