Alguien (Acordes)

Leo García

Full Álbum: Mar (2001)
Subida por icaro277

Compartir


Imprimir FAQ
+A
-A

Texto

Desplazamiento

Transportador

Color de Fondo

Archivos

-A
+A
Intro:


   D   D   D           Em         G            

e|-2---2---2----5-3-2-0--------------------------/
B|-------------3-------3-3-3-2-2-0---3-2-0-3-2-0-/
G|--2---2-----2-----------0---0------------------/
D|-0---0---0-------------------------------------/
A|-----------------------------------------------/
E|---------------------0----------3--------------/


   D        D          Em          G  A  D

e|-2------------5-3-2-0---------------0--2-/
B|-------------3-------3-3-3-2-2-0-3--2----/
G|--2-2-4-2---2-----------0---0-------2----/
D|-0--------0-------------------------2--0-/
A|-----------------------------------------/
E|---------------------0-----------3-------/


D                   Em
Alguien me recuerda
   G
En alguna parte
D                 Em
Alguien me nombra
   G
En alguna parte
D                Em
Alguien me sueña
   G
En alguna parte


G
Alguien en alguna parte
Bm                A 
Alguien en alguna parte
Em
Abriga una espera para mi
G
Alguien en alguna parte
Bm                A
Alguien en alguna parte
G
Cuenta la misma soledad


D
Alguien que no nombro
C
Alguien que no recuerdo
Em
Alguien que no sueño
   A
En alguna parte está


e|---------------/
B|----3-2-0------/
G|-0-2-----2-0-2-/
D|---------------/
A|---------------/
E|---------------/


   D                           C
En alguna parte está y no lo sé
   Em                         A  
en alguna parte está y no lo sé


Solo: G-Bm-A-Em  - x2


Cualquier comentario, sugerencias o correcciones escriban! Gracias!


Video Clip de Alguien


ACORDES PARA GUITARRA

PIANO UKELELE
D
Em
G
A
Bm
C


TOP 20: Las más tocadas de Leo García


Toca una Canción al Azar de Leo García

Acordes

Cerrar
D
Em
G
A
Bm
C

15.11

x

95