Porque te quiero (Acordes)

Leo Mattioli

Subida por Ferdidurke

Compartir


Imprimir FAQ
+A
-A

Texto

Desplazamiento

Transportador

Color de Fondo

Archivos

-A
+A
1-------5--6--8-6-6-5-6-|-------5-6--8-6-6-5-6-|
2---6-8-----------------|---6-8----------------|
3-----------------------|----------------------| ( K )
4-----------------------|----------------------|
5-----------------------|----------------------|
6-----------------------|----------------------|

1-------5--6--8-10-8-6-8|---5-6-8-10-8-8-6-6-5-|
2----8------------------|-8--------------------
3-----------------------|----------------------|
4-----------------------|----------------------|
5-----------------------|----------------------|
6-----------------------|----------------------|

hace otra vez ( K ) y despues

1-------5--6--8-10-8-6-8|-----5-6-8-10-8-8-6-6-5--5- |
2---8-------------------|---8--------------------2--2|
3-----------------------|----------------------------|
4-----------------------|----------------------------|
5-----------------------|----------------------------|
6-----------------------|----------------------------|

1---5/65----6---6-8-10/8--|
2----------8---8-----------|
3--------------------------|
4--------------------------|
5--------------------------|
6--------------------------|



Bb                 F                             Gm      

Me preguntas, y te contesto como un niño con las manos
    Dm                               Bb    Cm      F
que te quiero hasta el cielo y mucho mas , de lo que imaginas
Bb                 F                            Gm
Te sonries, y de alegria o tal vez porque no crees
     Dm                                      Bb    Cm        F
que tanto amor que te prometo , no pueda existir, pero juro que es asi.

  Gm-Gm
Gm                                            F
Si me faltas solo hare, lo que nunca hice por un amor

por ti llorariaa
Bb
porque te quiero
         Dm
cuanto te quieero
Cm
si una bala cruzara por delante de ti
F                                               Bb
pondria yo mi pecho para demostrarte asi cuanto te quiero
            Dm
ay cuanto te quieero
Cm      
Y es mi pecho y mi garganta, tambien mi corazon
F
se juntan todos ellos para gritarte ay amor,
              Bb
cuanto te quiero.

Bb                 F                             Gm     
Te pregunto, si me quieres y con un beso te rompes
 Dm                               Bb    Cm      
y me doy cuenta que no queda mas nada que hablar
     F
nos comenzamos a amar.


Gm                                           
Si me faltas, sera mejor, morir y enterrarme
F                 
que intentar olvidarte

Bb
porque te quiero
         Dm
cuanto te quieero
Cm
si una bala cruzara por delante de ti
F                                               Bb
pondria yo mi pecho para demostrarte asi cuanto te quiero
            Dm
ay cuanto te quieero
Cm      
Y es mi pecho y mi garganta, tambien mi corazon
F
se juntan todos ellos para gritarte ay amor,
              Bb
cuanto te quiero.


Video Clip de Porque te quiero


ACORDES PARA GUITARRA

PIANO UKELELE
Bb
F
Gm
Dm
Cm


TOP 20: Las más tocadas de Leo Mattioli


Acordes

Cerrar
Bb
F
Gm
Dm
Cm

13.13

x

101