Y vete ya (Acordes)

Leo Mattioli

Subida por jonathan

Compartir


Imprimir FAQ
+A
-A

Texto

Desplazamiento

Transportador

Color de Fondo

Archivos

-A
+A
INTRO-ARPEGIO 1

      LA        MI            SIm          FA#m            MI
1-----0--0--|-----0-----|-----242-----|-----2-----|----2-0----|
2---2--2--2-|---0--0-0--|---3----3-3--|---2--2-2--|---0---0-0-|
3--2----2---|--1-1--1---|--4------4---|--2-2--2---|--1-----1--|
4-----------|-----------|-------------|-----------|-----------|
5-0---------|-----------|-2---2-2-----|-----------|-----------|
6-----------|-0---------|-------------|-2---------|-0---------|




ARPEGIO 2

      LA            MI               FA#m
1-------0----0----|---------0-------|-------2-----2----|
2-----2---2---2---|-----0-----0---0-|-----2---2-----2--|
3---2-------2-----|---1---1-----1---|---2-------2------|
4-----------------|-----------------|------------------|
5-0---------------|-----------------|------------------|
6-----------------|-0---------------|-2----------------|

    MI       FA#m
1---------|--2-4--|
2-----0---|-------|
3---1---1-|-------|
4---------|-------|
5---------|-------|
6-0-------|--2-4--|

LA                  MI      
 Perdona tengo que decirte             | 
FA#m                   MI    FA#m SOL#m       | Arpegio2
    esto no puede continuar              |
LA                  MI      
  Tu ya eres grande para entender
FA#m                   MI
   Pero mis hijos no podrán
LA                     MI  
  Empieza ya una nueva vida
FA#m                SIm
  ellos te necesitan más
               MI
  tenés que entender

RIFF1

RE       MI       FA#m 
  Y vete ya por favor
SIm       LA            MI
  que no quiero verte llorar
RE         MI        FA#m
  yo nunca te los oculte
SIm        LA         MI
  eso no puedes reprochar
LA         MI        FA#m
  Ya vete tengo que volver
SIm                  FA#m
  con mis hijos y mi mujer
                 MI 
  tienes que entender

RIFF2

LA                MI
  Me da latima decirte 
FA#m                   MI    FA#m SOL#m
  que a mi casa devo volver
LA                  MI
  pena me da tu cara triste
FA#m                     MI      
  al saber que duermo con mi mujer
LA                  MI
  no te engaño te extrañare
FA#m                   SIm
  pero a mi casa debo volver
             MI
  tienes que entender

  Y vete ya...



RIFF1
1-0-0-1/2-0--------|
2----------3/2-0---|
3------------------|
4------------------|
5------------------|
6------------------|

RIFF2
1-0-0-0-1/2-0------|
2------------3/2-0-|
3------------------|
4------------------|
5------------------|
6------------------|

LES RECOMIENDO QUE ESCUCHEN EL TEMA PARA SACAR MAS RAPIDO EL RASGUIDO
Y EL ARPEGIO.
ESTA ES LA VERSION ACUSTICA PERO SE INCLUYEN LOS RIFFs DE LA VERSION 
EN VIVO.
CUALQUIER DUDA NO DUDEN EN PREGUNTARME [email protected]

JAVIER AVIGLIANO.


Video Clip de Y vete ya


ACORDES PARA GUITARRA

PIANO UKELELE
A
E
Bm
F#m
G#m
D


TOP 20: Las más tocadas de Leo Mattioli


Acordes

Cerrar
A
E
Bm
F#m
G#m
D

10.28

x

107