Norte (Little Jesus) Acordes



Más Versiones de esta Canción | Ver. 2 |

Cifrado |Americano| - |Latino|

Cambiar Tonalidad
BAJAR UN TONO BAJAR UN SEMI-TONO SUBIR UN SEMI-TONO SUBIR UN TONO PARTIR PANTALLA EN VERTICAL PARTIR PANTALLA EN VERTICAL ¡Ayuda!
-A
+A

Recuerda que #AcordesWeb se mantiene en línea gracias al aporte de nuestros anunciantes.
Un cover rápido para los que andan buscando los acordes de la canción.
Para ver como se toca: https://www.youtube.com/watch?v=ef3HbxjUkZg

Ritmo guitarra versos:

A C#m A C#m A C#m A C#m
-5-----------5-----------5-----------5----------
-----4-----------4-----------4-----------4------
------------------------------------------------
---6---6-6-----6---6-6-----6---6-6-----6---6-6--
---5---5-5-----5---5-5-----5---5-5-----5---5-5--
------------------------------------------------



Intro: A-C#m x4

A C#m A C#m A C#m A C#m
Cuando el norte se vuelve el sur
A C#m A C#m A C#m A C#m
Todos vemos la misma luz
A C#m A C#m A C#m A C#m
Nunca fuimos como nos pensa-ban
A C#m A C#m A C#m A C#m
Caminamos sin cansarnos hasta que el calor te apaga

F#m A
Ay Qué mal
D
Tú tendras que dormir
C#m Bm F#m
Cuando el día acaba de empezar
A
No hay nada
D
Peor que ver la mañana
C#m Bm F#m
Obligando a la luna a escapar
A
Qué mal
D
tú tendras que dormir
C#m Bm F#m
Cuando el día acaba de empezar
A
No hay nada
D
Peor que ver tu mirada
E D C#m Bm A-C#m A-C#m A-C#m A-C#m
Y no po-der ha-blar

A C#m A C#m A C#m A C#m
Las olas hacen de mi voz
A C#m A C#m A C#m A C#m
Hasta cuando se apa-aga el sol
A C#m A C#m A C#m A C#m
Quiero tus sonrisas en un fras-co
A C#m A C#m A C#m A C#m
Listas para usar cuando no quede nadie más quehacer

F#m A
Ay Qué mal
D
Tú tendras que dormir
C#m Bm F#m
Cuando el día acaba de empezar
A
No hay nada
D
Peor que ver la mañana
C#m Bm F#m
Obligando a la luna a escapar
A
Qué mal
D
tú tendras que dormir
C#m Bm F#m
Cuando el día acaba de empezar
A
No hay nada
D
Peor que ver tu mirada
E D C#m Bm A-C#m A-C#m A-C#m A-C#m
Y no po-der ha-blar

SOLO:

e|-------------------------------------------------------
a|--------------4---------------4-------------4-2-4-4-2-4
d|-4-6---4-6-4-2-2-4-6---4-6-4-2-2-4-6-4-2-4-2-----2-----
g|-------------------------------------------------------
b|-------------------------------------------------------
e|-------------------------------------------------------

e|-------------------------------------------------------
a|-2-4-4---------------4-2-4-4-------------4-2-4-4-------
d|----2-2-4-6-4---2-4-2-----2-2-4/6-4-2-4-2-----2-2-4-6-4
g|-------------------------------------------------------
b|-------------------------------------------------------
e|-------------------------------------------------------

e|-------------------------------------------------------
a|-------------------4-2-4-------------------------------
d|-2-4-6-4-2-4-2--4/2------------------------------------
g|-------------------------------------------------------
b|-------------------------------------------------------
e|-------------------------------------------------------


F#m A
Ay Qué mal
D
Tú tendras que dormir
C#m Bm F#m
Cuando el día acaba de empezar
A
No hay nada
D
Peor que ver la mañana
C#m Bm F#m
Obligando a la luna a escapar
A
Qué mal
D
tú tendras que dormir
C#m Bm F#m
Cuando el día acaba de empezar
A
No hay nada
D
Peor que ver tu mirada
E D C#m Bm A-C#m A-C#m A-C#m A-C#m
Y no po-der ha-blar


A C#m A C#m A C#m A C#m
Cuando el norte se vuelve el sur
A C#m A C#m A C#m A C#m
Cuando el norte se vuelve el sur
A C#m A C#m A C#m A C#m
Cuando el norte se vuelve el sur
A C#m A C#m A C#m A C#m
Cuando el norte se vuelve el sur

Outro:
A C#m A C#m A C#m A C#m...



BONUS:

Al final hay una guitarra de acompañamiento secundario que hace lo
siguiente en palm mute,Tienen que encontrarle el ritmo oyendo la canción.

e|----------------------|----------------------
a|-12-12-12-12-------12-|-12-12-12-12-------12-
d|-------------11-11----|-------------11-11----
g|----------------------|----------------------
b|----------------------|----------------------
e|----------------------|----------------------
e|----------------------|----------------------
a|-12-12-12-12-------12-|-12-12-12-12-------12-
d|-------------11-11----|-------------11-11----
g|----------------------|----------------------
b|----------------------|----------------------
e|----------------------|----------------------



Toca una Canción al Azar de Little Jesus



ACORDES PARA GUITARRA - ACORDES PARA UKELELE

A
C#m
F#m
D
Bm
E




Esta canción ya tiene 3 comentarios... ¿y tu que opinas?

Escribe un comentario o pregunta sobre esta canción




Más canciones de Little Jesus

  • Mal
  • Magia
  • Pesadilla
  • La Magia
  • Berlin
  • Fuera de lugar
  • Cruel
  • TQM
  • Químicos
  • Nuevo México
  • Cretino
  • Color
  • Golden Choice
  • Norte
  • Sur
  • Los años maravillosos
  • Azul
  • Truco
  • Volver al futuro
  • Siguiente


    ABRIR ACORDES

    Nuestro servidor se demoró 0.02 segundos en generar esta página. Eso fue realmente muy rápido!