Equivocado
Loquillo
Acordes

Subida por javiergarciarojas


Más Versiones
Ver. 2 Ver. 3

Cambiar Cifrado
Americano Latino

Cambiar Tonalidad
-1 +1

Partir Pantalla Imprimir FAQ

+A
-A
    
Riff principal e intro; Allá va:

+ +
e-----0-2-0-------0--0h2--------------0--2--0---------5-------
B---2---2-2-0---2----------0--------2----2----0---------------
G-2-----------2----------2--------2-------------2--2-4--4--2--
D-------------------------------------------------4-----------

2 veces (2a vez con acordes LA5-FA#5(5a)-E5(5a))

Esos son los riffs de la canción:

Riff 1

A------0--3b(4)--
E-0--3-----------

Riff 2
+
e-----------
B----3-3----
G----3-3----
D----3-3----
A----0-0--2-
E--0--------

Riff 3
+
e--------------
B--------------
G--------------
D----0---------
A------0------0
E--0------2-0--


El Loco se pone manos a la obra:

(5a)(5a)
LA5 LA5 FA#5-E5 LA5 LA5 Riff 1
Nací en un momento equivocado
(5a)(5a)
LA5 LA5 FA#5-E5 LA5 LA5 Riff 2
en un pais equivocado
(...)
LA5 LA5 FA#5-E5 LA5 LA5 Riff 1
en la ciudad equivocada

LA5 LA5 FA#5-E5 LA5 LA5 Riff 2
en la familia equivocada


LA5-LA5-FA#5-E5-LA5 Riff 1


LA5 LA5 FA#5-E5 LA5 LA5 Riff 2
Tuve los amigos equivocados

LA5 LA5 FA#5-E5 LA5 LA5 Riff 1
Escuché la música equivocada

LA5 LA5 FA#5-E5 LA5 LA5 Riff 3
Lei los libros equivocados

LA5 LA5 FA#5-E5 LA5 LA5 Riff 1
Oi palabras equivocadas


FA#5(5a) D5(5a) E5(5a)
Amé a la persona equivocada

FA#5a#5(5a) D5 E5 (intro)
Hablé con gente en el idioma equivocado


b bending
h hammer-on
p pull-of
+ vibrato

Larga vida a Loquillo y Trogloditas!


ACORDES PARA GUITARRA

PIANO UKELELE
B
D
E
G
A
A5
F#5
E5
D5


COMENTARIOS

Aún no hay comentarios,

¡escribe el primero!

Escribe una pregunta, duda o comentario sobre esta canción, te responderemos a la brevedad.

Las más tocadas de Loquillo

Toca una Canción al Azar de Loquillo
B
D
E
G
A
A5
F#5
E5
D5