Veteranos
Loquillo
Acordes

Subida por JAVIERBATISTA


Más Versiones
Ver. 2 Ver. 3

Cambiar Cifrado
Americano Latino

Cambiar Tonalidad
-1 +1

Partir Pantalla Imprimir FAQ

+A
-A
Esta es la del directo!!!

INTRO: SOL MIm7 LAm4 RE4 (x2)

A la vez que canta ¡¡veteranos!! hace esto acompañado con los
acordes del inicio:

riff 1

e---------------------------------------------------------
b----------------------------¡¡veteranos!!----------------
g---------------------------------------------------------
d-5-5-4-5-7-5-4-5-7-7-7-5-4----------------5-5-4-5-7-5----
a---------------------------5-----------------------------
e---------------------------------------------------------

e------------------------------------------------------
b------------------------------------------------------
g-----------4------------------------------------------
d-4-5-7-7-7---7----------------------------------------
a------------------------------------------------------
e------------------------------------------------------

y luego esto:

riff 2 Sol

e------------------------------------------------------
b------------------------------------------------------
g------------------------------------------------------
d----------0-2-0-2-3-2-0--------------------------------------
a----0-2-3---------------3-2--------------------------------
e--3----------------------------------------------------




Veteranos... riff 1
Veteranos... riff 1 y riff 2

SOL
Nos miran de reojo al entrar en todas partes,
pasiones encontradas por los años de rodaje.

RE
No es una frase mía pero resulta brillante
DO
"Que difícil ser humilde, cuando uno es tan grande".

SOL con el RIFF 2

SOL
Conocimos a profetas, burdos charlatanes
defensores de muy altos pero oscuros ideales.

RE
Aprendí... que trovadores, bandoleros y juglares
DO
no tienen acceso a los más santos lugares;
SIb LA RE (A-4h5-5-5-4h5) x5)
como nunca rezaron, no hay dios que los aguante.

SOL
Sabor de Veteranos
MIm
De mierda hasta el cuello
LAm RE
sobrevimimos a ello
(Veteranos!)
SOL MIm
por tres cuartos de talento
LAm RE
y unas gotas de inspiración
DO RE riff1
como un tequila reposado... Sabor de veterano.
Veterano... riff 1 y riff 2

(Aquí como querais)con quintas o normal

SOL
Conocimos a mujeres de toda condición
que rebuscaron por los bajos de mi pantalon
DO
un lugar en la cumbre, su lugar bajo el sol.
RE
Incando el codo, pasados de vueltas;
DO
confieso que las drogas nunca dan respuestas,
SIb LA RE (A-4h5-5-5-4h5)-(x5)
sustituyen emociones cuando no las encuentras.


Sabor de Veteranos
SOL MIm
De mierda hasta el cuello
LAm RE
sobrevimimos a ello
(Veteranos!)
SOL MIm7
por tres cuartos de talento
LAm4 RE
y unas gotas de inspiración
DO RE SOL riff 1
como un tequila reposado... Sabor de veterano.

DO9 RE9 SOL
veteraaaaaaaaaaaaaaaaaaaanos



Acordes: los acordes del inicio són igual que los originales solo
que hay que añadir un dedo al tercer traste de la primera cuerda.
A excepción de estos:


SOL DO9 RE9

e-3- e-0- e-0--
b-3- b-3- b-5-
g-0- g-3- g-5-
d-0- d-2- d-4-
a-2- a-3- a-5-
e-3- e-x- e-x--

////////////////// ¿Te Animas? Sube una canción a este sitio. //////////////////

ACORDES PARA GUITARRA

PIANO UKELELE
G
Em7
Am11
D4
D
C
Bb
A
A
Em
Am
C9
D9


COMENTARIOS

Aún no hay comentarios,

¡escribe el primero!

Escribe una pregunta, duda o comentario sobre esta canción, te responderemos a la brevedad.

Las más tocadas de Loquillo

Toca una Canción al Azar de Loquillo
G
Em7
Am11
D4
D
C
Bb
A
A
Em
Am
C9
D9