Villa María
Lornaz
Acordes

Subida por Enrique


Más Versiones
Ver. 2 Ver. 3

Cambiar Cifrado
Americano Latino

Cambiar Tonalidad
-1 +1

Partir Pantalla Imprimir FAQ

+A
-A
(RE#)             (SI)
Ya estoy cansado de tus niñerias

(FA#) (LA#) (RE/RE#-RE)
Eres una perra del Villa Maria

(RE#) (SI)
Me ha llegado al pincho que hables de tu vida

(FA#) (LA#) (RE/RE#-RE)
Deja de aburrirme y comprate una vida

(RE#) (SI)
Tu vida basada en lo que te diran

(FA#) (LA#) (RE/RE#-RE)
Siempre preocupada por como te veras

(RE#) (SI)
Llamas la atencion y quieres figurar

(FA#) (LA#) (RE/RE#-RE)
Tu vida es un asco alejate de aca


E:-------------------------------------------------------------------
B:-------------------------------------------------------------------
G:-------------------------------------------------------------------
D:-------------------------------------------------------------------
A:--5/6---8---6-8---2---6--8/9-8--6-----------------6/8-8--(parada)--
E:----------------------------------2--4--2-4-6---8------------------

E:-------------------------------------------------------------------
B:-------------------------------------------------------------------
G:-------------------------------------------------------------------
D:-------------------------------------------------------------------
A:-----8---6-8---2---6--8/9-8--6--------------------6-8--------------
E:----------------------------------2--4--2-4-6---8------------------


(RE#) (SI) (FA#) (LA#) (RE/RE#-RE)
NOOOOOOOO Puedo aguan tarteeeeee eeeeeeeeeeeeeeee

www.lornaz.tk / www.23punk.tk


ACORDES PARA GUITARRA

PIANO UKELELE
D#
B
F#
A#
D
E
B
G
D


COMENTARIOS

Aún no hay comentarios,

¡escribe el primero!

Escribe una pregunta, duda o comentario sobre esta canción, te responderemos a la brevedad.

Las más tocadas de Lornaz

Toca una Canción al Azar de Lornaz
D#
B
F#
A#
D
E
B
G
D