Anhelo (Acordes)

Los Adolescentes

Subida por Jerry2012

Compartir


Cambiar Cifrado
Americano Latino

Cambiar Tonalidad
-1 +1
Imprimir FAQ
+A
-A

Texto

Desplazamiento

Transportador

Color de Fondo

Archivos

TONALIDAD, TAMAÑO, CIFRADO, SCROL.

Nos renovamos: Ahora puedes cambiar TODO haciendo clic en ICONO de la Guitarra () que aparece en la parte inferior de esta página.


LETRA CON ACORDES

Intro:

E|--------------------5--------------------------------------5-------|
B|-----3--5--6--5--3--------3--5--6--5--3-----3--5--6--5--3----------|
G|-------------------------------------------------------------------|
D|-------------------------------------------------------------------|
A|--0--------------------0-----------------0-------------------------|
E|-------------------------------------------------------------------|

E|--------------------------------------5----------------------------|
B|-----3--5--6--5--3-----3--5--6--5--3--------3--5--6----------------|
G|-------------------------------------------------------------------|
D|-------------------------------------------------------------------|
A|--0-----------------0--------------------0-------------------------|
E|-------------------------------------------------------------------|

E|--5-5---3-3---1-1---0-0--0h2-1-----1-------------------------------|
B|----------------------------------3--------------------------------|
G|---------------------------------2---------------------------------|
D|-------------------------------------------------------------------|
A|-------------------------------------------------------------------|
E|-------------------------------------------------------------------|


Dm  Gm  C  F  Dm  Gm  B  A


Intro: primera parte


 Dm                 Gm
Yo quiero basar tu boca
  C                   F
Lo anhelo con ansias locas
 Dm            Gm
Deseo abrir tu alma
 Bb                   A              A7
Y entrar en tu manantial de granas

 Dm                     Gm
Tan suaves que son tus labios
 C                   F
Como plumas de un canario
   Dm                Gm
Tu pelo es como la espuma
      Bb                            A      A7
Que brota al rosar del aire que lo toca


Coro

 Dm                       Gm
Por que dios te hizo tan bella
 C                     F
Eres pura eres una estrella
 Dm                  Gm
Te amo demasiadio quiero a mi lado
 Bb                A                   A7
Purpura de mi alma agua de mi vida        ...(bis)

Dm  Gm  C  F  Dm  Gm  B  A


Intro: primera parte


  Dm                 Gm
Quiero tenerte a mi lado
    C             F
De ti estoy enamorado
  Dm            Gm
Azabache es tu pelo
   Bb                 A                  A7
Y sentirlo pronto es lo que yo anhelo

  Dm                   Gm
Si estar contigo es posible
    C                    F
Yo haria hasta lo inadmisible
     Dm             Gm
Yo quiero que seas mía y
        Bb                A               A7
Y que llegues a ser la niña de mi vida


Coro


Dm                       Gm    C    F
Por que dios te hizo tan bellaaaaaaaaa
 Dm                  Gm
Te amo demasiadio quiero a mi lado
 Bb                A                   A7
Purpura de mi alma agua de mi vida


Dm  Gm  C  F


 Dm                       Gm
Por que dios te hizo tan bella
         C          F
es que te amo demasiado
 Dm                       Gm
Por que dios te hizo tan bella
             C         F
es que te quiero a mi lado
 Dm                       Gm
Por que dios te hizo tan bella
   C                       F
besar tus lindos labios quiero
 Dm                       Gm
Por que dios te hizo tan bella
Bb                A
    es que te amo


Dm  Gm  C  F  ...(bis)


Dm                       Gm
Por que dios te hizo tan bella
 C                   F
purpura de mi alma y agua de mi vida
 Dm                       Gm
Por que dios te hizo tan bella
           C                        F
tu no me niegues tu amor quiero sentirte mia
 Dm                       Gm
Por que dios te hizo tan bella
           C           F
quiero llenarte de pasion
 Dm                       Gm
Por que dios te hizo tan bella
            Bb        A
eres mi estrella de amor


Intro completo


Dm  Gm  C  F  Dm  Gm  B  A  Dm

Fin


Video Clip de Anhelo


ACORDES PARA GUITARRA

PIANO UKELELE
Dm
Gm
C
F
B
A
Bb
A7


TOP 20: Las más tocadas de Los Adolescentes


Acordes

Cerrar
Dm
Gm
C
F
B
A
Bb
A7

13.59

x

104