Yo me imagino (Acordes)

Los Caballeros Negros

Subida por mario

Compartir


Imprimir FAQ
+A
-A

Texto

Desplazamiento

Transportador

Color de Fondo

Herramientas

TAMAÑO
TONALIDAD
+A
+ (F4)
-A
- (F2)

Intro:

Base: (ReM-LaM)x 2

|-10---------------|----------|---------------|----------|
|-10--12--10-------|----------|-12--10--------|----------|
|-----------11--12-|----11----|--------11--11-|----11----|
|------------------|-12----12-|----------12---|-12----12-|
|------------------|----------|---------------|----------|
|------------------|----------|---------------|----------|

|-10---------------|----------|---------------|----------|
|-10--12--10-------|----------|-12--10--------|----------|
|-----------11--12-|----11----|--------11--11-|----11----|
|------------------|-12----12-|----------12---|-12----12-|
|------------------|----------|---------------|----------|
|------------------|----------|---------------|----------|

 RE              LA 
|-2--3--2---|------|-0---------|-0-----|
|-3-------3-|------|-2--3--2---|--2----|
|-2---------|----0-|-2-------2-|---2---|
|-0---------|-0h2--|-2---------|----2--|
|-----------|------|-0---------|-----0-|
|-----------|------|-----------|-------|
Yo me imagino un mundo sin guerras  
 RE              LA 
|-2--3--2---|------|-0---------|-0-----|
|-3-------3-|------|-2--3--2---|--2----|
|-2---------|----0-|-2-------2-|---2---|
|-0---------|-0h2--|-2---------|----2--|
|-----------|------|-0---------|-----0-|
|-----------|------|-----------|-------|
yo me imagino un mundo sin problemas
 SIm                FA#m
|-2--------2-|-------|------------|-2/3/2-|
|-3------3---|-------|-2--------2-|-2/3/2-|
|-4----4-----|-------|-2------2---|-------|
|-4--4-------|-0h2p0-|-4----4-----|-------|
|-2----------|-------|-4--4-------|-------|
|------------|-------|-2----------|-------|
dónde no haya discriminación     
 RE              LA 
|-2--3--2---|------|-0---------|-0-----|
|-3-------3-|------|-2--3--2---|--2----|
|-2---------|----0-|-2-------2-|---2---|
|-0---------|-0h2--|-2---------|----2--|
|-----------|------|-0---------|-----0-|
|-----------|------|-----------|-------|
yo me imagino un mundo en paz  

 SI5                   MI5
|-2--2---|            |-0--0---|
|--4--4--|            |--0--0--|
|---4--4-|            |---1--1-|
|--------|            |--------|
|--------|            |--------|
|--------|            |--------|
Si el mundo fuera como lo que yo me imagino
 RE5            LA5
|-2--2--2--2---|-0--0--0--0---|
|--3--3--3--3--|--2--2--2--2--|
|---2--2--2--2-|---2--2--2--2-|
|--------------|--------------|
|--------------|--------------|
|--------------|--------------|
todo estaría en paz 
 SI5                   MI5
|-2--2---|            |-0--0---|
|--4--4--|            |--0--0--|
|---4--4-|            |---1--1-|
|--------|            |--------|
|--------|            |--------|
|--------|            |--------|
porque lo que yo me imagino 
 RE5            LA5
|-2--2--2--2---|-0--0--0--0---|
|--3--3--3--3--|--2--2--2--2--|
|---2--2--2--2-|---2--2--2--2-|
|--------------|--------------|
|--------------|--------------|
|--------------|--------------|
Es con el mundo que todos sueñan.

|-10---------------|----------|---------------|----------|
|-10--12--10-------|----------|-12--10--------|----------|
|-----------11--12-|----11----|--------11--11-|----11----|
|------------------|-12----12-|----------12---|-12----12-|
|------------------|----------|---------------|----------|
|------------------|----------|---------------|----------|

|-10---------------|----------|---------------|----------|
|-10--12--10-------|----------|-12--10--------|----------|
|-----------11--12-|----11----|--------11--11-|----11----|
|------------------|-12----12-|----------12---|-12----12-|
|------------------|----------|---------------|----------|
|------------------|----------|---------------|----------|

 RE              LA 
|-2--3--2---|------|-0---------|-0-----|
|-3-------3-|------|-2--3--2---|--2----|
|-2---------|----0-|-2-------2-|---2---|
|-0---------|-0h2--|-2---------|----2--|
|-----------|------|-0---------|-----0-|
|-----------|------|-----------|-------|
Yo me imagino un mundo con justicia, 
 RE              LA 
|-2--3--2---|------|-0---------|-0-----|
|-3-------3-|------|-2--3--2---|--2----|
|-2---------|----0-|-2-------2-|---2---|
|-0---------|-0h2--|-2---------|----2--|
|-----------|------|-0---------|-----0-|
|-----------|------|-----------|-------|
Yo me imagino un mundo sin peleas 
 SIm                FA#m
|-2--------2-|-------|------------|-2/3/2-|
|-3------3---|-------|-2--------2-|-2/3/2-|
|-4----4-----|-------|-2------2---|-------|
|-4--4-------|-0h2p0-|-4----4-----|-------|
|-2----------|-------|-4--4-------|-------|
|------------|-------|-2----------|-------|
Donde nadie engaña a nadie    
 RE              LA 
|-2--3--2---|------|-0---------|-0-----|
|-3-------3-|------|-2--3--2---|--2----|
|-2---------|----0-|-2-------2-|---2---|
|-0---------|-0h2--|-2---------|----2--|
|-----------|------|-0---------|-----0-|
|-----------|------|-----------|-------|
Yo me imagino un mundo en paz.  

 SI5                   MI5
|-2--2---|            |-0--0---|
|--4--4--|            |--0--0--|
|---4--4-|            |---1--1-|
|--------|            |--------|
|--------|            |--------|
|--------|            |--------|
Si el mundo fuera como lo que yo me imagino
 RE5            LA5
|-2--2--2--2---|-0--0--0--0---|
|--3--3--3--3--|--2--2--2--2--|
|---2--2--2--2-|---2--2--2--2-|
|--------------|--------------|
|--------------|--------------|
|--------------|--------------|
todo estaría en paz 
 SI5                   MI5
|-2--2---|            |-0--0---|
|--4--4--|            |--0--0--|
|---4--4-|            |---1--1-|
|--------|            |--------|
|--------|            |--------|
|--------|            |--------|
porque lo que yo me imagino 
 RE5            LA5
|-2--2--2--2---|-0--0--0--0---|
|--3--3--3--3--|--2--2--2--2--|
|---2--2--2--2-|---2--2--2--2-|
|--------------|--------------|
|--------------|--------------|
|--------------|--------------|
Es con el mundo que todos sueñan.

Solo 1:

Base: (ReM-LaM)x2 (Sim-Fa#m) (ReM-LaM)

|-----------------------------|----------------------------------|
|-----------------------------|----------------------12--14--14r-|
|-11--12--11--14--12----11----|---------------12--14-------------|
|--------------------12----14-|--------12--14--------------------|
|-----------------------------|-12--14---------------------------|
|-----------------------------|----------------------------------|

|------------|-12------------|-------------------|-------|---------|
|-r14h12--14-|--------12--14-|-------------------|-------|-2--3--5-|
|------------|-----14-----14-|-14v--12v--11v--9v-|-7v----|-4--4--6-|
|------------|---------------|-------------------|----7v-|-4--5--7-|
|------------|---------------|-------------------|-------|---------|
|------------|---------------|-------------------|-------|---------|

 RE              LA 
|-2--3--2---|------|-0---------|-0-----|
|-3-------3-|------|-2--3--2---|--2----|
|-2---------|----0-|-2-------2-|---2---|
|-0---------|-0h2--|-2---------|----2--|
|-----------|------|-0---------|-----0-|
|-----------|------|-----------|-------|
Yo me imagino un mundo sin coimas  
 RE              LA 
|-2--3--2---|------|-0---------|-0-----|
|-3-------3-|------|-2--3--2---|--2----|
|-2---------|----0-|-2-------2-|---2---|
|-0---------|-0h2--|-2---------|----2--|
|-----------|------|-0---------|-----0-|
|-----------|------|-----------|-------|
yo me imagino un mundo sin falsos  
 SIm                FA#m
|-2--------2-|-------|------------|-2/3/2-|
|-3------3---|-------|-2--------2-|-2/3/2-|
|-4----4-----|-------|-2------2---|-------|
|-4--4-------|-0h2p0-|-4----4-----|-------|
|-2----------|-------|-4--4-------|-------|
|------------|-------|-2----------|-------|
dónde los políticos sean buenos  
 RE              LA 
|-2--3--2---|------|-0---------|-0-----|
|-3-------3-|------|-2--3--2---|--2----|
|-2---------|----0-|-2-------2-|---2---|
|-0---------|-0h2--|-2---------|----2--|
|-----------|------|-0---------|-----0-|
|-----------|------|-----------|-------|
yo me imagino un mundo en paz  

 SI5                   MI5
|-2--2---|            |-0--0---|
|--4--4--|            |--0--0--|
|---4--4-|            |---1--1-|
|--------|            |--------|
|--------|            |--------|
|--------|            |--------|
Si el mundo fuera como lo que yo me imagino
 RE5            LA5
|-2--2--2--2---|-0--0--0--0---|
|--3--3--3--3--|--2--2--2--2--|
|---2--2--2--2-|---2--2--2--2-|
|--------------|--------------|
|--------------|--------------|
|--------------|--------------|
todo estaría en paz 
 SI5                   MI5
|-2--2---|            |-0--0---|
|--4--4--|            |--0--0--|
|---4--4-|            |---1--1-|
|--------|            |--------|
|--------|            |--------|
|--------|            |--------|
porque lo que yo me imagino 
 RE5            LA5
|-2--2--2--2---|-0--0--0--0---|
|--3--3--3--3--|--2--2--2--2--|
|---2--2--2--2-|---2--2--2--2-|
|--------------|--------------|
|--------------|--------------|
|--------------|--------------|
Es con el mundo que todos sueñan.

Solo 2:

Base: (ReM-LaM)x2 (Sim-Fa#m) (ReM-LaM)

|------------------------------|---------|-9h10p9-----------|
|-----10h12p10--10-------------|-12--10v-|--------10-----10-|
|-12b-----------11-------9--11-|---------|-----------12--11-|
|------------------9--11-------|---------|------------------|
|------------------------------|---------|------------------|
|------------------------------|---------|------------------|
                                               
                                          PM:------------: 
|------------------------------|-10h12p10-----------------|
|------------------------------|--------------------------|
|-------9----11--9-------11/14-|--------------------------|
|-9--11---11-------11--9-------|--------------------------|
|------------------------------|------------------------2-|
|------------------------------|--------------5h7--3h5--0-|

|----7-------------|------------------|
|-7b---r7--5---5---|------------------|
|------------6---6-|---------------7g-|
|------------------|---5---5--7--5----|
|------------------|-7---7------------|
|------------------|------------------|

 RE              LA 
|-2-------|      |-0---------|
|-3-------|      |-2---------|
|-2-------|      |-2---------|
|-0-------|      |-2---------|
|---------|      |-0---------|
|---------|      |-----------|
Yo me imagino un mundo sin políticos
 RE              LA 
|-2-------|      |-0---------|
|-3-------|      |-2---------|
|-2-------|      |-2---------|
|-0-------|      |-2---------|
|---------|      |-0---------|
|---------|      |-----------|
Yo me imagino un mundo sin pobreza
 SIm                     FA#m
|-2---------|             |------------|
|-3---------|             |-2--------2-|
|-4---------|             |-2------2---|
|-4---------|             |-4----4-----|
|-2---------|             |-4--4-------|
|-----------|             |-2----------|
Donde se done todo hasta el fin
 RE              LA 
|-2-------|      |-0---------|
|-3-------|      |-2---------|
|-2-------|      |-2---------|
|-0-------|      |-2---------|
|---------|      |-0---------|
|---------|      |-----------|
Yo me imagino un mundo en paz.

 SI5                   MI5
|-2--2---|            |-0--0---|
|--4--4--|            |--0--0--|
|---4--4-|            |---1--1-|
|--------|            |--------|
|--------|            |--------|
|--------|            |--------|
Si el mundo fuera como lo que yo me imagino
 RE5            LA5
|-2--2--2--2---|-0--0--0--0---|
|--3--3--3--3--|--2--2--2--2--|
|---2--2--2--2-|---2--2--2--2-|
|--------------|--------------|
|--------------|--------------|
|--------------|--------------|
todo estaría en paz 
 SI5                   MI5
|-2--2---|            |-0--0---|
|--4--4--|            |--0--0--|
|---4--4-|            |---1--1-|
|--------|            |--------|
|--------|            |--------|
|--------|            |--------|
porque lo que yo me imagino 
 RE5            LA5
|-2--2--2--2---|-0--0--0--0---|
|--3--3--3--3--|--2--2--2--2--|
|---2--2--2--2-|---2--2--2--2-|
|--------------|--------------|
|--------------|--------------|
|--------------|--------------|
Es con el mundo que todos sueñan.

 RE              LA 
|-2--3--2---|------|-0---------|-0-----|
|-3-------3-|------|-2--3--2---|--2----|
|-2---------|----0-|-2-------2-|---2---|
|-0---------|-0h2--|-2---------|----2--|
|-----------|------|-0---------|-----0-|
|-----------|------|-----------|-------|
Yo me confundo con una de mis fantasias
 RE              LA 
|-2--3--2---|------|-0---------|-0-----|
|-3-------3-|------|-2--3--2---|--2----|
|-2---------|----0-|-2-------2-|---2---|
|-0---------|-0h2--|-2---------|----2--|
|-----------|------|-0---------|-----0-|
|-----------|------|-----------|-------|
Yo me confundo con algo que es irreal
 SIm                FA#m
|-2--------2-|-------|------------|-2/3/2-|
|-3------3---|-------|-2--------2-|-2/3/2-|
|-4----4-----|-------|-2------2---|-------|
|-4--4-------|-0h2p0-|-4----4-----|-------|
|-2----------|-------|-4--4-------|-------|
|------------|-------|-2----------|-------|
Porque hay que decir la verdad
 RE              LA 
|-2--3--2---|------|-0---------|-0-----|
|-3-------3-|------|-2--3--2---|--2----|
|-2---------|----0-|-2-------2-|---2---|
|-0---------|-0h2--|-2---------|----2--|
|-----------|------|-0---------|-----0-|
|-----------|------|-----------|-------|
Con estos jefes nadie va a sobrevivir.

 SI5                   MI5
|-2--2---|            |-0--0---|
|--4--4--|            |--0--0--|
|---4--4-|            |---1--1-|
|--------|            |--------|
|--------|            |--------|
|--------|            |--------|
Si el mundo fuera como lo que yo me imagino
 RE5            LA5
|-2--2--2--2---|-0--0--0--0---|
|--3--3--3--3--|--2--2--2--2--|
|---2--2--2--2-|---2--2--2--2-|
|--------------|--------------|
|--------------|--------------|
|--------------|--------------|
todo estaría en paz 
 SI5                   MI5
|-2--2---|            |-0--0---|
|--4--4--|            |--0--0--|
|---4--4-|            |---1--1-|
|--------|            |--------|
|--------|            |--------|
|--------|            |--------|
porque lo que yo me imagino 
 RE5            LA5
|-2--2--2--2---|-0--0--0--0---|
|--3--3--3--3--|--2--2--2--2--|
|---2--2--2--2-|---2--2--2--2-|
|--------------|--------------|
|--------------|--------------|
|--------------|--------------|
Es con el mundo que todos sueñan.

Final:

Solo 3:

|------------------------------------2-|
|-10--8--7---------------------------3-|
|----------9--7--6-------------------2-|
|-------------------7--5--4----------0-|
|---------------------------7--5--4----|
|--------------------------------------|

Leyenda:
r: Subir nota un semitono.
b: Subir nota un tono.
v: Vibrato.
h: Hammer on.
p: Pull off.
g: Bajar cuerda subir un semitono.
PM: Palm mute.

Acordes:
ReM      xx0232
LaM      x02220
Sim      x24432
Fa#m      24422x
Si5      799xxx
Mi5      x799xx
Re5      x577xx
La5      577xxx

HERRAMIENTAS ACORDESWEB:


LETRA DE LA CANCIÓN:

Ver la letra sola (sin acordes)

OTRAS VERSIONES DE LA MISMA CANCIÓN:

Ver. 2 Ver. 3

DESCARGAR PDF / IMPRIMIR CANCIÓN



ACORDES PARA GUITARRA

PIANO UKELELE
D
A
Bm
F#m
B5
E5
D5
A5


TOP 20: Las más tocadas de Los Caballeros Negros