Soy (Acordes)

Los Dickers

Subida por robotix93

Compartir


Cambiar Cifrado
Americano Latino

Cambiar Tonalidad
-1 +1
Imprimir FAQ
+A
-A

Texto

Desplazamiento

Transportador

Color de Fondo

Archivos

TONALIDAD, TAMAÑO, CIFRADO, SCROL.

Nos renovamos: Ahora puedes cambiar TODO haciendo clic en ICONO de la Guitarra () que aparece en la parte inferior de esta página.


LETRA CON ACORDES

Intro: FA# SOL# MI  x2


(en p.m menos el primer toque en Fa# y el final del último Mi)

FA#     SOL#        MI
 Soy la mano que se cierra cuando ya no hay más

FA#        SOL#       MI
 Soy quien quiero ser nada oculta mi antifaz

FA#     SOL#            MI
 Soy el sueño aquel que nunca pude recordar

FA#     SOL#             MI
 Soy el que a tus pies desata nudos si hay que andar



 ESTRIBILLO


FA#  SOL#     MI
 Déjame que reviente el mundo en dos patadas

FA#   SOL#       MI
 y arañar lo que quede en pie de sus entrañas

FA#   SOL#     MI
 Llévame al rincón donde las manos hablan

FA#    SOL#     MI
 pa´ dejarme querer...



(en p.m menos el primer toque en Fa# y el final del último Mi)

FA#     SOL#             MI
 Soy el perro infiel que sólo ataca por detrás

FA#     SOL#          MI                            FA#
 Soy la puerta que se cierra cada vez que cierra el bar

      SOL#         MI
Soy como la sal mezclada con agua de mar

FA#     SOL#        MI
 Soy la boca que te busca hambrienta en el portal



 ESTRIBILLO


FA#  SOL#     MI
 Déjame que reviente el mundo en dos patadas

FA#   SOL#       MI
 y arañar lo que quede en pie de sus entrañas

FA#   SOL#     MI
 Llévame al rincón donde las manos hablan

FA#    SOL#     MI
 pa´ dejarme querer...



(Mi* = se hace en 5º para que suene más aguda)

MI*    SOL#      SI           FA#            MI*
 Y a correr cada vez que el silencio eche su red

       SOL#      SI       FA#             MI*
Y a llegar más allá de lo que tus piernas den

       SOL#      SI         FA#           MI*
Y revolver la ciudad cuando las sombras parece que ven ¡GO!



 SOLO:

   FA#            SOL#           MI
E|----------------------------------------------------------
B|----------------------------------------------------------
G|-6--6-6-6-6-8-6-4--4-4-4-4-----4--4-4-4-4-----4-4-6/8-6-4-
D|---------------------------4-6------------4-6-------------
A|----------------------------------------------------------
E|----------------------------------------------------------

   FA#                 SOL#          MI
E|----------------------------------------------------------
B|----------------------------------------------------------
G|-11--11-11-11-11-11--8--8-8-8-8-8--9--9-9-9-9-9-9-9-9-9-9-
D|----------------------------------------------------------
A|----------------------------------------------------------
E|----------------------------------------------------------

   FA#                    SOL#       MI
E|----------------------------------------------------------
B|-11--11-11-11-11-12-11--7--7-7-7-7------------------------
G|-----------------------------------9--9-9-9-9-9--8-8-9-8--
D|----------------------------------------------------------
A|----------------------------------------------------------
E|----------------------------------------------------------

   FA#                    SOL#            MI
E|-------------------------------------------------------------------------
B|-11--11-11-11-11-12-11--7--7-7-7-7------12--12-12-12-12--14--14-14-14-14-
G|-------------------------------------------------------------------------
D|-------------------------------------------------------------------------
A|-------------------------------------------------------------------------
E|-------------------------------------------------------------------------



(el corista hace "aahh")

FA#     SOL#           MI
 Soy la tentación que asoma por cualquier lugar

FA#   SOL#         MI
 la revolución los sueños que no se hacen realidad

FA#     SOL#       MI
 Soy un animal que se escapó sin vacunar

FA#     SOL#          MI
 Soy lo que te doy si soy capaz de darte más



 ESTRIBILLO

(Se repite y en en la 2º el corista dice la 1º palabra de cada verso)


FA#  SOL#     MI
 Déjame que reviente el mundo en dos patadas

FA#   SOL#       MI
 y arañar lo que quede en pie de sus entrañas

FA#   SOL#     MI
 Llévame al rincón donde las manos hablan

FA#    SOL#     MI
 pa´ dejarme querer...



Finaliza (cada acorde un toque):

FA# SOL# SOL# MI


http://myspace.com/losttimevlc


Video Clip de Soy


ACORDES PARA GUITARRA

PIANO UKELELE
F#
G#
E
E
B


TOP 20: Las más tocadas de Los Dickers


Toca una Canción al Azar de Los Dickers

Acordes

Cerrar
F#
G#
E
E
B

20.07

x

94