El Pelmazo
Los Jackson
Acordes

Subida por Ramiroalvis


Más Versiones
Ver. 2 Ver. 3

Cambiar Cifrado
Americano Latino

Cambiar Tonalidad
-1 +1

Partir Pantalla Imprimir FAQ

+A
-A
Intro

(Guitarra 1)
e|-----------------------------------------------------||
B|----5/7--5---5----------------5/7--5---5-7-7-5---5---||
G|-----------7---7--7-7-7-7-7----------7---------7-----||
D|-----------------------------------------------------||(x3)
A|-----------------------------------------------------||
E|-----------------------------------------------------||
(Guitarra 2)
e|--------------------------------------------||
B|--------------------------------------------||
G|----7-7-7-7---4-4-4-4-----------------------||
D|----7-7-7-7---4-4-4-4---5-5-5-5---7-7-7-7---||(x3)
A|----5-5-5-5---2-2-2-2---5-5-5-5---7-7-7-7---||
E|------------------------3-3-3-3---5-5-5-5---||
D5 B5 G5 A5

(Guitarra 1)
e|----------------------||
B|----5/7--5---5--------||
G|-----------7---7------||
D|----------------------||
A|----------------------||
E|----------------------||
(Guitarra 2)
e|-----------------------------------||
B|-----------------------------------||
G|----7-7-7-7---4-4-4-4--------------||
D|----7-7-7-7---4-4-4-4---5(5)-------||
A|----5-5-5-5---2-2-2-2---5(5)-------||
E|------------------------3(3)-------||
D5 B5 G5

Riff 1
(Guitarra 1&2)
e|-----------------------------||
B|-----------------------------||
G|----7-7---4-4----------------||
D|----7-7---4-4---5-5---7-7----||(x4)
A|----5-5---2-2---5-5---7-7----||
E|----------------3-3---5-5----||
D5 B5 G5 A5

Verso 1
D Bm
yo solo quiero creer que yo no voy a perder
G A
y que voy a seguir ganando toda mi vida
D Bm
lo mio quieren tener y hasta mi novia tambien
G A
son las apuestas las que me han dejado en la ruina


Coro 1
G A D Bm
y ahora bebo en forma desmedida
G A D Bm
perdi mi casa mi carro y mi familia
G A D Bm
yo soy un chico que vive de mentiras
G A D
y sigo borracho en la tienda de la esquina


Intro


Verso 2
D Bm
y ahora que ya estoy bien y que
G A
no volvi a beber nadie me apoya con una monedita
D Bm
ni para el bus tengo ya
G
creen que no voy a cambiar maldita sea!
A
este ya no es mi vicio


Coro 2
G A D Bm
y ahora entiendo porque soy un fracaso
G A D Bm
yo no hago nada yo solo muevo el brazo
G A D Bm
todos me dicen que yo soy un PELMAZO!!!
G A D
pero al final yo no les hago caso


Puente

Guitarra 1 -> D Bm Eii Gii
(Este es el mismo curso del Bajo)

Guitarra 2 -> D Bm G A
e|--------- e|---------------
B|--5/7---- B|--5/7-8-7-5----
G|------7-- (x3) G|------------7--
D|--------- D|---------------
A|--------- A|---------------
E|--------- E|---------------

D Bm Eii Gii [x2]


Verso 2

Coro 2

Riff 1 (x4)

Final
D
Jackson.....


Esta es una de las mejores canciones de
esta banda de Sk8-Punk(Neo-Punk) de Bogotá-Colombia,
los que la han oido saben que es cierto.
Creo que el tab esta correcto.......
Algun comentario? E-mail me.....Sk8-Punx Rules!!!


ACORDES PARA GUITARRA

PIANO UKELELE
D5
B5
G5
A5
D
Bm
G
A


COMENTARIOS

Aún no hay comentarios,

¡escribe el primero!

Escribe una pregunta, duda o comentario sobre esta canción, te responderemos a la brevedad.

Las más tocadas de Los Jackson

Toca una Canción al Azar de Los Jackson
D5
B5
G5
A5
D
Bm
G
A