Final
Los Jaivas
Acordes

Subida por Day23


Más Versiones
Ver. 2

Cambiar Cifrado
Americano Latino

Cambiar Tonalidad
-1 +1

Partir Pantalla Imprimir FAQ

+A
-A
hola, esta cancion es entera en piano pero yo no se transcribir
una cancion a piano pero dejo los acordes PARA GUTIARRA
ke muy bien se pueden hacer en piano si alguien lo dacea...

1I---------------------
2I------0------0------0
3I----0------0------0--TODO ESTO SE REPITE UNA VEZ MAS
4I--2------2------2----o kiza mas veces
5I---------------------
6I---------------------

dadme el
1------------------------------------
2------0----0-----0-----0-----0-----0
3----0----0-----0-----0-----0-----0--
4--2----2-----2-----2-----2-----2---
5-----------------------------------
6----------------------------------
silencio
1-------------------------------------
2------1-----1------1-------1------1--
3----2-----2------2------2-------2----en esta
4--4-----4-----4------4-------4-------parte el
5-------------------------------------piano se
6-------------------------------------apura
el agua LA
1-------------------------------------
2------3-----3-----3-----3-----3------
3----4-----4-----4-----4-----4-------
4--5-----5-----5-----5-----5---------
5------------------------------------
6------------------------------------
LA esperanza
1-----------------------------------
2------1-----1------1-----1------1--
3----2-----2------2-----2------2----
4--4-----4------4-----4------4------
5-----------------------------------
6-----------------------------------

1------------------------------------
2------0----0-----0-----0-----0-----0
3----0----0-----0-----0-----0-----0--
4--2----2-----2-----2-----2-----2---
5-----------------------------------
6----------------------------------

1-------------------------------------
2------1-----1------1-------1------1--
3----2-----2------2------2-------2----
4--4-----4-----4------4-------4-------
5-------------------------------------
6-------------------------------------
dadme LA
1------------------------------------
2------3-----3-----3-----3-------3---
3----4-----4-----4-----4------4------
4--5-----5-----5-----5-----5---------
5------------------------------------
6------------------------------------
lucha
1-------------------------------------
2------1-----1------1-------1------1--
3----2-----2------2------2-------2----
4--4-----4-----4------4-------4-------
5-------------------------------------
6-------------------------------------
el hierro los
1------------------------------------
2------0----0-----0-----0-----0-----0
3----0----0-----0-----0-----0-----0--
4--2----2-----2-----2-----2-----2---
5-----------------------------------
6----------------------------------
volca..............a.............
1-------------------------------------
2------1-----1------1-------1------1--
3----2-----2------2------2-------2----
4--4-----4-----4------4-------4-------
5-------------------------------------
6-------------------------------------
.........a........nes
1-------------------------------------
2------3-----3-----3-----3-----3------
3----4-----4-----4-----4-----4-------
4--5-----5-----5-----5-----5---------
5------------------------------------
6------------------------------------

1-------------------------------------
2------1-----1------1-------1------1--
3----2-----2------2------2-------2----
4--4-----4-----4------4-------4-------
5-------------------------------------
6-------------------------------------
apegadme los
1------------------------------------
2------0----0-----0-----0-----0-----0
3----0----0-----0-----0-----0-----0--
4--2----2-----2-----2-----2-----2---
5-----------------------------------
6----------------------------------
cuerpos
1-------------------------------------
2------1-----1------1-------1------1--
3----2-----2------2------2-------2----
4--4-----4-----4------4-------4-------
5-------------------------------------
6-------------------------------------
como ma...............A............
1-------------------------------------
2------3-----3-----3-----3-----3------
3----4-----4-----4-----4-----4-------
4--5-----5-----5-----5-----5---------
5------------------------------------
6------------------------------------
.......a................a...........
1-------------------------------------
2------1-----1------1-------1------1--
3----2-----2------2------2-------2----
4--4-----4-----4------4-------4-------
5-------------------------------------
6-------------------------------------
.....a..........res
1------------------------------------
2------0----0-----0-----0-----0-----0
3----0----0-----0-----0-----0-----0--
4--2----2-----2-----2-----2-----2---
5-----------------------------------
6-------------------------------------

1-------------------------------------
2------1-----1------1-------1------1--
3----2-----2------2------2-------2----
4--4-----4-----4------4-------4-------
5-------------------------------------
6-------------------------------------

1-------------------------------------
2------3-----3-----3-----3-----3------
3----4-----4-----4-----4-----4-------
4--5-----5-----5-----5-----5---------
5------------------------------------
6------------------------------------

1-------------------------------------
2------1-----1------1-------1------1--
3----2-----2------2------2-------2----
4--4-----4-----4------4-------4-------
5-------------------------------------
6-------------------------------------
acudid a
1------------------------------------
2------0----0-----0-----0-----0-----0
3----0----0-----0-----0-----0-----0--
4--2----2-----2-----2-----2-----2---
5-----------------------------------
6-----------------------------------
mis venas
1-------------------------------------
2------1-----1------1-------1------1--
3----2-----2------2------2-------2----
4--4-----4-----4------4-------4-------
5-------------------------------------
6-------------------------------------
y a mi bo............o..............
1-------------------------------------
2------3-----3-----3-----3-----3------
3----4-----4-----4-----4-----4-------
4--5-----5-----5-----5-----5---------
5------------------------------------
6------------------------------------

......o.....................o.........
1-------------------------------------
2------1-----1------1-------1------1--
3----2-----2------2------2-------2----
4--4-----4-----4------4-------4-------
5-------------------------------------
6-------------------------------------
......o......ca
1------------------------------------
2------0----0-----0-----0-----0-----0
3----0----0-----0-----0-----0-----0--
4--2----2-----2-----2-----2-----2---
5-----------------------------------
6------------------------------------

1-------------------------------------
2------1-----1------1-------1------1--
3----2-----2------2------2-------2----
4--4-----4-----4------4-------4-------
5-------------------------------------
6-------------------------------------
hablad por
1-------------------------------------
2------3-----3-----3-----3-----3------
3----4-----4-----4-----4-----4-------
4--5-----5-----5-----5-----5---------
5------------------------------------
6------------------------------------
mis palabras
1-------------------------------------
2------1-----1------1-------1------1--
3----2-----2------2------2-------2----
4--4-----4-----4------4-------4-------
5-------------------------------------
6-------------------------------------
y mi sa..................a..........
1------------------------------------
2------0----0-----0-----0-----0-----0
3----0----0-----0-----0-----0-----0--
4--2----2-----2-----2-----2-----2---
5-----------------------------------
6------------------------------------
............a........an...............
1-------------------------------------
2------1-----1------1-------1------1--
3----2-----2------2------2-------2----
4--4-----4-----4------4-------4-------
5-------------------------------------
6-------------------------------------
.....a................gre
1-------------------------------------
2------3-----3-----3-----3-----3------
3----4-----4-----4-----4-----4-------
4--5-----5-----5-----5-----5---------
5------------------------------------
6------------------------------------

1-------------------------------------
2------1-----1------1-------1------1--
3----2-----2------2------2-------2----
4--4-----4-----4------4-------4-------
5-------------------------------------
6-------------------------------------

1------------------------------------
2------0----0-----0-----0-----0-----0
3----0----0-----0-----0-----0-----0--
4--2----2-----2-----2-----2-----2---
5-----------------------------------
6------------------------------------
EN ESTA PARTE EL PIANO HACE UNA PAUSA
Y LUGO KONTINUA , HACIENDO LO MISMO
MAS OTRA PARTE , KE EN REALIDAD ES
LO MISMO KE LOS DE ANTES SOLO KE UNA
OCTAVA O MAS OCTAVAS ABAJO OSEAUN
SONIDO MAS AGUDO.
1----------------------------
2--5-----5-----5-----5-------
3----4-----4-----4-----4-----
4------5-----5-----5-----5---
5----------------------------
6----------------------------

1----------------------------
2--7-----7-----7-----7-------
3----5-----5-----5-----5-----
4------7-----7-----7-----7---
5----------------------------
6----------------------------

1----------------------------
2--8-----8-----8-----8-------
3----7-----7-----7-----7-----
4------9-----9-----9-----9---
5----------------------------
6----------------------------
BUENO, LO ANTERIOR ES LA PARTE
KE HACE EL PIANO JUNTO KON LOS
VERSOS

EMMMM.... ESPERO KE SE ENTIENDA
Y LES SIRVA DE ALGO , LOS AKORDES
SON: MIm, re7 y sol RESPECTIVAMENTE
ALGO KE OLVIDAVA ES KE LA REPETICION
DE CADA NOTA ES A CRITERIO PROPIO
YO KOMO EJEMPLO PUSE 6 O 5 REPETICIONES.
YA, KUALKIER DUDA , KRITIKA O KULKIER
KOSA A MI MAIL ([email protected])
CHAO.....

////////////////// ¿Te Animas? Sube una canción a este sitio. //////////////////

ACORDES PARA GUITARRA

PIANO UKELELE
A
A


COMENTARIOS

Aún no hay comentarios,

¡escribe el primero!

Escribe una pregunta, duda o comentario sobre esta canción, te responderemos a la brevedad.

Las más tocadas de Los Jaivas

Toca una Canción al Azar de Los Jaivas
A
A