Mamalluca
Los Jaivas
Acordes

Subida por Ponchile


Más Versiones
Ver. 2 Ver. 3 Ver. 4 Ver. 5

Cambiar Cifrado
Americano Latino

Cambiar Tonalidad
-1 +1

Partir Pantalla Imprimir FAQ

+A
-A
intro:

1/--13/15-13----13----13----------------------15----15-18-15~---------------------------
2/-----------15----15----15-13^15^13-------15~---18----------18-15-18-15----------------
3/-----------------------------------15-12-------------------------------17-15-17-15----
4/-----------------------------------------------------------------------------------17~


1/--------------------------------------------15----15-18-15-15-15/18-15/18-18-15/18-18-15/18-18-
2/--------------------------15----15-18-15-18----18----------------------------------------------
3/--------15----15-17-15-17----17----------------------------------------------------------------
4/--12-17----17----------------------------------------------------------------------------------


1/--15/18-18-15/18-18-15/18-18-18-15^18^15-13----15~15^13----13----------------------------------------------
2/--------------------------------------------15----------15----15-13^15^13----13----------------------------
3/--------------------------------------------------------------------------15----15-14-12-------------------
4/-----------------------------------------------------------------------------------------15-12-------------
5/-----------------------------------------------------------------------------------------------15-13-12-10~

1/--------------------------------------------------------------------------------------------------------------------------------------15/-
2/--------13/15~15-13^15^13-------15~------13/15~15-13^15^13----------------13/15~15-13^15^13-------15~------13/15~15-13^15^13--------------
3/--12/15~------------------15-12----12/15~------------------15-12-15~12/15~------------------15-12----12/15~------------------15-14-12-----



SOLm DOm FA SOLm
:/mamalluca, simiente reposado,
DOm FA SOLm
mamalluca, mirando a lo profundo/:
RE SOLm DOm RE
mamalluca, traes los vientos cosmicos,
SOLm DOm RE7
a refrescar, la amalgama inverosimil.
SOLm DOm FA SOLm
mamalluca, de los montes que cobijan,
DOm FA SOLm
mamalluca, a los valles elquinos.

RE SOLm
mamalluca, mamalluca,
RE SOLm
mamalluca, mamalluca,
RE SOLm RE
racimo, racimo celestial,
SOLm RE SOLm
mamalluca, mamalluca.
RE SOLm RE SOLm
mamalluca, noche eterna, mamalluca,
RE SOLm RE SOLm
mamalluca, dia incierto, mamalluca.

SOLm DOm FA SOLm
:/mamalluca, de tanto sumergirte,
DOm FA SOLm
en las vertiginosas cascadas de los cielos/:
RE SOLm DOm RE
desapareces gota a gota,
SOLm
te haces transparente,
DOm RE7
y eres montaña de viento.
SOLm DOm FA SOLm
mamalluca, materia ignota,
DOm FA SOLm
mamalluca, espacio, puro nada.

RE SOLm
mamalluca, mamalluca,
RE SOLm
mamalluca, mamalluca,
RE SOLm
mamalluca, fragilidad de la vida,
RE SOLm RE
mamalluca,......mamalluca,
SOLm RE SOLm-RE
mamalluca, nuestra misma galaxia,
RE SOLm
mamalluca, mamalluca,
RE SOLm
hasta el ultimo planeta.


ACORDES PARA GUITARRA

PIANO UKELELE
Gm
Cm
F
D
D7


COMENTARIOS

Aún no hay comentarios,

¡escribe el primero!

Escribe una pregunta, duda o comentario sobre esta canción, te responderemos a la brevedad.

Las más tocadas de Los Jaivas

Toca una Canción al Azar de Los Jaivas
Gm
Cm
F
D
D7