Media caña
los Piojos
Acordes

Subida por wilmerRodri
Álbum: Verde paisaje del infierno ( 2000)



Otras Versiones
Ver. 2

ENTRENA TU OÍDO MUSICAL CON ESTE JUEGO. ¿QUÉ ACORDE ES?. CLIC AQUÍ PARA JUGAR

Cambiar Cifrado
Americano Latino

Cambiar Tonalidad
-1 +1

Partir Pantalla Imprimir FAQ

Ver solo la LETRA

+A
-A
LETRA CON ACORDES
RIFF

E E F G E
-----------------------------------------------------------------------------
-7--7--7--7--7--7---7--7—-7--7--7--7---8—-8—-8---10--10--10--7--7--7--7--7--7
-6—-7--9--9--7--6---6--7--9--9--7--6---7—-8--10---9--10--12--6—-7--9--9--7--6
-----------------------------------------------------------------------------
-----------------------------------------------------------------------------
-----------------------------------------------------------------------------

E
Media caña en el colchon
Pata dura y corazon
F G E
Sos enganche, ya no hay goleador
E
Sentir el viento correr
Pasto fresco amanecer
F G E
Necesito volar otra vez.
C#m A
Y la distancia te hizo buena
C#m A
El sol de asoma y la noche en vela
C#m A F# A
Y ois los chicos para la escuela


E
---------------------------------------------
---------------------------------------------
---------------------------------------------
---------------------------------------------
----------5---------------------5------------
-7--5--4-----4--5--7---7--5--4-----4--5--7---


E
Una foto sin color
No me tires por favor
F G E
Soy lo ultimo que queda de mi.
E
En la cuarta dimension
La del más profundo amor
F G E
Te agradezco por cuidarme asi.
C#m A
Guardando el tiempo en cajas viejas
C#m A
De tinta y humo torpes madejas

C#m A F# A
Vas devolviendo la vida en gotas

A G
-------------------------------------------------
-------------------------------------------------
-------------------------------------------------
-4--2--1--4--2--1--4--6--7--9--11--9--7--6--7----
-------------------------------------------------
-------------------------------------------------

A G G
-------------------------------------------------
-------------------------------------------------
-------------------------------------------------
-------------------------------------------------
-5--3--2--5--3--2--5--7--8--10--12--10--8--7--8--



G
Siga, siga, semental
Que la cosa no va mal
G# Bb G
Esto debe ser estar feliz.
G
Una copa y un puñal
Nada más elemental
G# Bb G
Que seguir, seguir, clavando amor.
Em C
Pero en tu hogar no hay luces prendidas
Em C
Cuando volves la olla esta vacia
Em C A C
Todos los sueños cargan heridas, sabes.

G G# Bb G
AH AH AH AH AH AH AH


ACORDES PARA GUITARRA

PIANO UKELELE
E
F
G
C#m
A
F#
G#
Bb
Em
C


COMENTARIOS

Aún no hay comentarios,

¡escribe el primero!

Para hacer una pregunta o dejar un comentario sobre esta canción, debes estar LOGUEADO

Las canciones más tocadas de los Piojos

Toca una Canción al Azar de los Piojos
E
F
G
C#m
A
F#
G#
Bb
Em
C

Nuestro servidor se demoró 0.06 segundos en generar esta página. Eso fue realmente muy rápido!