Muy Despacito
los Piojos
Acordes

Subida por Monyk
Álbum: Ay ay ay ( 1994)



Otras Versiones
Ver. 2

ENTRENA TU OÍDO MUSICAL CON ESTE JUEGO. ¿QUÉ ACORDE ES?. CLIC AQUÍ PARA JUGAR

Cambiar Cifrado
Americano Latino

Cambiar Tonalidad
-1 +1

Partir Pantalla Imprimir FAQ

Ver solo la LETRA

+A
-A
LETRA CON ACORDES
A esta versión le faltaba la parte final,
con otras notas, que agrego ahora.

Intro (subida por ?El Vasco?)

e:------2-------2-------2---------------2-------2-------5-------4-----------
B:--------------------------------------------------------------------------
G:----2---2---2---2---2---2---2---2---2---2---2---2---4---4---4---4---------
D:--0-------4-------0-------4---3---0-------4-------5-------5---------------
A:--------------------------------------------------------------------------
E:--------------------------------------------------------------------------


e:------2-------2----------------3--------5---2-----------------------------
B:--------------------------------------------3-----------------------------
G:----2---2---2---2----012-0---2---2----4-----2-----------------------------
D:--0-------4--------0-------3--------5-------------------------------------
A:--------------------------------------------------------------------------
E:--------------------------------------------------------------------------

D
Jardines de calma feroz,
Am
un sol de infinita paciencia
C D Dsus4
los locos cantan su canción y aplauden.
D
Se acercan de a uno de a dos
Am
se va formando la ronda,
C D Dsus4
una enfermera tetona imita una estrella de rock.
D
Se ríen y del paredón,
Am
el eco aplaude contento,
C
el viejo dice que esta bien
D Dsus4
vamos adentro.
D
Andrés veni por favor
Am
acompañame un poquito
C
dice uno,
D
solo dame la mano.


Am
Muy despacito
C
sobre el abismo
D
volaré.


Jardines de calma feroz,
un sol de infinita paciencia
los locos cantan la canción y aplauden.
Se acercan de a uno de a dos
se va formando la ronda,
una enfermera gritona imita una estrella de rock.
Se ríen y del paredón,
el eco aplaude contento,
el viejo dice que esta bien
vamos adentro.
Andrés veni por favor
acompañame un poquito
dice uno,
solo dame la mano.

Muy despacito
sobre el abismo
volaré.

F
Abajo el sol,
G
abajo el sol,
D
yo ver
F
Abajo el sol,
G
abajo el sol,
D
llover.

F G
Muy despacito
D
volareeeeeee
F G
Sobre el abismo

volareeeee...

D D
Uoooooooo, Uoooooo
Am Am
Uoooooooo, Uooooooo
C C
Uoooooooo, Uooooooo
D D
Ayayayayayayayayyy

F G
Muy despacito
D
volareeeee,
F G
sobre el abismo
D
volareeeee,


ACORDES PARA GUITARRA

PIANO UKELELE
B
D
A
E
Am
C
Dsus4
F
G


COMENTARIOS

Aún no hay comentarios,

¡escribe el primero!

Para hacer una pregunta o dejar un comentario sobre esta canción, debes estar LOGUEADO

Las canciones más tocadas de los Piojos

Toca una Canción al Azar de los Piojos
B
D
A
E
Am
C
Dsus4
F
G

Nuestro servidor se demoró 0.04 segundos en generar esta página. Eso fue realmente muy rápido!