Shup - Shup (Acordes)

los Piojos

Full Álbum: 3er arco (1996)
Subida por claujavi

Compartir


Cambiar Cifrado
Americano Latino

Cambiar Tonalidad
-1 +1
Imprimir FAQ
+A
-A

Texto

Desplazamiento

Transportador

Color de Fondo

Archivos

TONALIDAD, TAMAÑO, CIFRADO, SCROL.

Nos renovamos: Ahora puedes cambiar TODO haciendo clic en ICONO de la Guitarra () que aparece en la parte inferior de esta página.


LETRA CON ACORDES

Intro

E--------------------------------------------------9-9-9--
B---------------------7*77--------------------------------
G--2------4--4---22-2-7*77--2--------4--4---22-2--9-9-9---
D--22234---33-3--2222-------22234-----33-3--2222----------
A--03045---------0030-------03045-----------0030----------
E---------------------------------------------------------

La Base Repite el Riff Anterior

El tipo dice que es difícil,
que lo duro va a pasar
el tipo habla del futuro
y no tenés laburo
y a él lo están por hechar

Base [La5 - Re5]

El tipo tiene gesto duro
y bajo el escritorio
un perfume singular
la nena lo hace sin apuro
y entre una cosa y otra es difícil gobernar

Shup Shup Shuburu bla bla (x4)

Base con

E---------------------9999--
B---------------------8888--
G-2------4--4---22-2--9999--
D-22234---33-3--2222--------
A-03045---------0030--------
E---------------------------

Vuelve al primer Riff

Ella habla que le gusta el cine
ella habla que de tu casa se va
cada tanto decís: si
te mira, sonríe fuma y vuelve a hablar

Ella tiene labios gruesos
y mueve las manos y te toca al pasar
y vos estas pensando solamente en eso
estás pensando en cómo hacerla callar

Shup Shup... (x4)

[RE LA MI MI]x2 en el solo
[LA5 RE5 LA5 RE5]x4 en LA armónica

Palo duro alcohol, palo duro rock and roll
palabras para cambiar la suerte
palo duro amor, palo para penas
palabras que se tiran al oido de una nena
palo duro arriba, palo que se traba
palabras que se mojan y que en tu boca se clavan

Base con el segundo riff

Shup Shup... (x4)


Video Clip de Shup - Shup


ACORDES PARA GUITARRA

PIANO UKELELE
D
A
E
A5
D5


TOP 20: Las más tocadas de los Piojos


Toca una Canción al Azar de los Piojos

Acordes

Cerrar
D
A
E
A5
D5

00.30


80