Rock del pipeño (Los Pipeños) Acordes



Cambiar Cifrado: |SOL > G| - |G > SOL|

BAJAR UN TONO BAJAR UN SEMI-TONO SUBIR UN SEMI-TONO SUBIR UN TONO PARTIR PANTALLA EN VERTICAL PARTIR PANTALLA EN VERTICAL ¡Ayuda!
-A
+A
Les pido perdon pero no se corregir estas cosas... la
unica forma que se m ocurrio de arreglar mi error fue
de esta manera.
------------------------------------------------------
Las voces entre () son las q marcelo no canta
sino q kike lo hace (coros).


SINO CONOCEN A LOS PIPEÑOS BAJEN ESTA CANCION POR
LO MENOS EN HTTP://WWW.LOSPIPENOS.COM


[ ROCK DEL PIPEÑOS ]

- Intro:

E-1-/3/1-----------1/1/3/1--------1/1/3/1----------
B-------3-1-3-3----------3-1------------3-1-------
G----------------------------3-3------------3-3---
D-------------------------------------------------
A-------------------------------------------------
E-------------------------------------------------


E-1/1/3/1-----------------------------------------
B--------3-1--3-5/7-5-3-5/7-5---------------------
G-----------------------------3-5/7-5-3-5/7-5-----
D-------------------------------------------------
A-------------------------------------------------
E-------------------------------------------------

E-----------------------------------1/3/1---------
B-3-5/7-5-3-5-6-5-------------------------3-1-3-3-
G-----------------3-5/7-5-3-5-6-5-----------------
D-------------------------------------------------
A-------------------------------------------------
E-------------------------------------------------

E---1/1/3/1-----------1/1/3/1---------------------
B-----------3-1---------------3-1-----------------
G---------------3-3---------------3-3-------------
D-------------------------------------------------
A-------------------------------------------------
E-------------------------------------------------

E---1/1/3/1-----------
B-----------3-1-3...--
G---------------------
D---------------------
A---------------------
E---------------------


Am RE
Pipeño,(pipeño)
SOL LA*
¿Qué es eso? decia el burgués
RE
(pipeño)
SOL LA* RE
¿Qué es eso y que puede ser?(pipeño)
SOL LA* RE
Pipeño, pipeño, pipeño
SOL LA* RE
Pipeño, pipeño, pipeño


Am Pipeños, (Pipeños)
Artistas sin un veinte
(pipeños)
Paseando por San Miguel(pipeño)
Pipeño, pipeño, pipeño
Pipeño, pipeño, pipeño

SOL
Bm Del Bar de tu casa un ritmo sin entender.. (BAJO)
(tab:
A--12-11-10-9-8-7-6-5-4-3-2-1------------
E-----------------------------5-4-3/3/3..)
SOL
Rock del pipeño a Elvis hace mover (BATERIA)
SOL LA-LA#-LA
Los pipeños no salen, no salen en tv

E----------------------------------
B-3-5/7-5-3-5-6-5------------------
G-----------------3-5/7-5-3-5-6-5--
D----------------------------------
A----------------------------------
E----------------------------------

E----------------------------------
B-3-5/7-5-3-5-6-5------------------
G-----------------3-5/7-5-3-5-6-5--
D----------------------------------
A----------------------------------
E----------------------------------

E--1/3/1-----------1/1/3/1---------
B----------3-1-3-----------3-1-----
G------------------------------3-3-
D----------------------------------
A----------------------------------
E----------------------------------

E---1/1/3/1-----------1/1/3/1-------
B-----------3-1---------------3-1-3-
G---------------3-3-----------------
D-----------------------------------
A-----------------------------------
E-----------------------------------


Am Pipeño, (pìpeño)
¿Dónde lo venden? quiero saber
(pipeño)
No busques en Apumanque (pipeño)
Pipeños, pipeños, pipeños
Pipeños, pipeños, pipeños

Bm En la Calle en el persa de Pudahuel(GUITARRA)
Rock del Pipeño se tocan tres acordes(BATERIA)
Los pipeños no salen, no salen en tv

Am Pipeño , (pipeño)
un litro q hace mover
(pipeño)
Envase retornable
(pipeño)
Pipeño, pipeño, pipeño
Pipeño, pipeño, pipeño
Pipeño, pipeño, pipeño

PÍPA! (INSTRUMENTAL)


RE-SOL-LA# >> X4
RE*-SOL-LA# >> X2 (RE*: Ver glosario acordes, abajo)

E------------10----------10-------10----
B----10---10----10----12---12--11----11-
G-11---11----------11-------------------
D--------------------------------------- >> X 2
A---------------------------------------
E---------------------------------------

PIPEÑOOOOOOOO

Am Pipeño , (pipeño)
¿Qué es eso? decia el burgues
(pipeño)
q es eso y q puede seer
Pipeño, pipeño, pipeño
Pipeño, pipeño, pipeño

(CORTA EN UN RE) AHHHHHHHH !


----------GLOSARIO ACORDES--------------

RE SOL LA# RE*
E---5--|--3--|--5--|--14--| * La guitarra ritmica
B---7--|--3--|--5--|--15--| marca las notas naturales
G---7--|--4--|--6--|--14--|
D---7--|--5--|--7--|------| * Estos acordes llevan sus
A---5--|--5--|--7--|------| arpegios locos entremedio
E---5--|--3--|--5--|------| a medida q la escuchan, podran
sacarlos.


Gracias por ver esta tab... saludos a mis
seres queridos..y pipeños !... aguante !
espero les sirva !



¡Siguiente!

Toca una Canción al Azar de Los Pipeños
Am
D
G
A
E
A
A#
D
B
D
A




Aún no hay comentarios, ¡escribe el primero!

Escribe un comentario o pregunta sobre esta canción:




Más canciones de Los Pipeños

Rock del pipeño
La cajita feliz
El caminito

Siguiente


ABRIR ACORDES

Nuestro servidor se demoró 0.05 segundos en generar esta página. Eso fue realmente muy rápido!