Cielo
Los Playeros
Acordes

Subida por Malou


Más Versiones
Ver. 2 Ver. 3 Ver. 4

Cambiar Cifrado
Americano Latino

Cambiar Tonalidad
-1 +1

Partir Pantalla Imprimir FAQ

+A
-A


Ver solo la LETRA

LA# SOLm FA
Pensó en aquellos años
DOm SOLm
estábamos tu y yo
SOL# FA
muy libres y enamorados


PUNTEO

e-------------------------------------------------------------
B------------------3-4-6--6-4-3-------------------------------
G--3-3-3--5-5--7-7--------------3---3-3-3--5-5--7-7--5-3-5--2-
D-------------------------------------------------------------
A-------------------------------------------------------------
E-------------------------------------------------------------

-----6-5-------------------------------------------------/
-6-8-----6-8--3-4-6--6-4-3-------------------------------/
---------------------------3---3-3-3--5-5--7-7--5-3-5--2-/
---------------------------------------------------------/
---------------------------------------------------------/
---------------------------------------------------------/


LA# SOLm FA
Pensó en aquellos años
DOm SOLm
estábamos tu y yo
SOL# FA
muy libres y enamorados


no quiero alejarme de ti
caminando y de la mano
ahora todo termino

ESTRIBILLO

RE# FA SOLm
nena tu eres para mi
LA# RE#
ven acuéstate en mis brazos
RE# FA SOLm
no lo puedo creer
FA
te perdi

hoy necesito tu amor
yo lo veo en tu corazón
y están difícil creer
te perdí


PUNTEO


no quiero esperar mucho tiempo
que tu amor venga hacia a mí
mi amor no me hagas sufrir


hoy nada me hará cambiar
lo que te quiero decir
que mi amor te alumbrara

ESTRIBILLO

DOm RE#
si en tu vida encontrare
SOLm
que te ame de verdad
FA
que siempre te cuidara

hoy nada me hará cambiar
lo que te quiero decir
que mi amor te alumbrara


ESTRIBILLO


ESTA TRANSCRIPCION SE LA QUIERO DEDICAR A DIEGO LUCERO PARA QUE
SE PONGA LAS PILAS CON LAS CANCIONES.

¡AGUANTE LOS PLAYEROS!

////// ////// ////// ///// ////// //// ///////
/ // // ////// / // // // / // // / //
/ // // / // /////// ////// // / //
////// ///// ////// // // / // //// ///////


ACORDES PARA GUITARRA

PIANO UKELELE
A#
Gm
F
Cm
G#
D#


COMENTARIOS

Aún no hay comentarios,

¡escribe el primero!

Escribe una pregunta, duda o comentario sobre esta canción, te responderemos a la brevedad.

Las más tocadas de Los Playeros

Toca una Canción al Azar de Los Playeros
A#
Gm
F
Cm
G#
D#