Así fué
Los Playeros
Acordes

Subida por Szemusic


Más Versiones
Ver. 2 Ver. 3

Cambiar Cifrado
Americano Latino

Cambiar Tonalidad
-1 +1

Partir Pantalla Imprimir FAQ

+A
-A


Ver solo la LETRA
 INTRO:

D A G Em A A C#dim
e|---------------------------------------------------------7-9/10-9~---0---0---|
B|--/12-10-8-7~---7-7-12-7-10~---12-10-8-7-7/8~---5-7-8~---------------2---2---|
G|---------------------------------------------------------------------2---0---|
D|---------------------------------------------------------------------2---0---|
A|---------------------------------------------------------------------0-------|
E|-----------------------------------------------------------------------------|


D
Perdona si te hago llorar,
Bm
perdona si te hago sufrir,
G A
pero es que no está en mis manos,
G A
pero es que no está en mis manos,
Bm A D
me he enamorado, me he enamorado, me enamoré.

D
Perdona si te causo dolor,
Bm
perdona si te digo hoy adiós,
G A
como decirle que te amo,
G A
como decirle que te amo,
Bm A D
si me ha preguntado, yo le dije que no, yo le dije que no.


D
Soy honesto con ella y contigo,
Bm
a ella la quiero y a ti te he olvidado,
G
si tu quieres seremos amigos,
A
yo te ayudo a olvidar el pasado,
Bm A G
no te aferres, ya no te aferres, a un imposible,
Em G A D
ya no te hagas, ni me hagas mas daño, ya no, ya no.


D
Tu bien sabes que no fué mi culpa,
Bm
tu te fuiste sin decirme nada,
G
y a pesar que lloré como nunca,
A
ya no seguías de mi enamorada,
Bm A G
luego te fuiste, y que regresabas, no me dijiste,
Em G A D
y sin mas nada, porqué no lo sé, pero fué así, así fué.


D
Te brindé la mejor de las suertes,
Bm
yo me propuse no hablarte no verte,
G
y hoy que has vuelto ya ves solo hay nada,
A
ya no puedo no debo quererte,
Bm A G
ya no te amo, pues me he enamorado, de un ser divino,
Em G A D
de un buen amor, que me enseñó, a olvidar, y a perdonar.


D
Soy honesto con ella y contigo,
Bm
a ella la quiero y a ti te he olvidado,
G
pero si tu quieres seremos amigos,
A
yo te ayudo a olvidar el pasado,
Bm A G
no te aferres, ya no te aferres, a un imposible,
Em G A D
ya no te hagas, ni me hagas mas daño, ya no, no no no no no
A G A
no no nohohoo larala laralaaaa



MELODÍAS FINALES: [D - A - G - Em - G - A] x 3 veces D - A - G - D...


e|------------------------------------------------------------------------------
B|--/12-10-8-7~---7-7-12-7-10~---12-10-8-7-7/8~---8-12--8-12--8-12-12--8-12-12--
G|------------------------------------------------------------------------------
D|------------------------------------------------------------------------------
A|------------------------------------------------------------------------------
E|------------------------------------------------------------------------------


e|-----------------------------------------------------------|
B|--8-12-12-10-8--8-12-12-10-8--8-12-12-10-8-12-8-12-12-10~--| TODO HASTA
G|-----------------------------------------------------------| AQUÍ
D|-----------------------------------------------------------| X 3 veces
A|-----------------------------------------------------------|
E|-----------------------------------------------------------|


e|-----------------------|
B|--8~---10-8-10~---12~--|
G|-----------------------| MELODÍA FINAL
D|-----------------------|
A|-----------------------|
E|-----------------------|


================================================================================
APARTADO: El arreglo que hace en Re al final de cada estrofa, por si quieren
tocarlo, es el siguiente:


D4 D D4 D6 D4 D D6
e|--3--2--3--5--3--2---5---
B|--3--3--3--3--3--3---2---
G|--2--2--2--2--2--2---3---
D|--0--0--0--0--0--0---0---
A|-------------------------
E|-------------------------

================================================================================
La transcripción es para un buen amigo, JORGE FUNEZ, mecánico por oficio y
obligación...


ACORDES PARA GUITARRA

PIANO UKELELE
D
A
G
Em
C#dim
Bm
D4
D6


COMENTARIOS

Aún no hay comentarios,

¡escribe el primero!

Escribe una pregunta, duda o comentario sobre esta canción, te responderemos a la brevedad.

Las más tocadas de Los Playeros

Toca una Canción al Azar de Los Playeros
D
A
G
Em
C#dim
Bm
D4
D6