Aunque te encuentres lejos
Los Plumas Negras
Acordes

Subida por Robar


Más Versiones
Ver. 2 Ver. 3

Cambiar Cifrado
Americano Latino

Cambiar Tonalidad
-1 +1

Partir Pantalla Imprimir FAQ

+A
-A


Ver solo la LETRA
Tono: Am

Am
Estoy seguro que piensas estando allá
C
Que es tan bonita la vida en el interior
Dm E
Y que te llena de tanta felicidad, hoy los recuerdos.
Am
Los festivales donde suena el acordeón
C
Todas las noches sé que los vas a extrañar
Dm E
Esos recuerdos que abrigan tu corazón son de tu pueblo...
Am
, que tanto extrañas.


Dm
Hoy con la pluma de ese gran compositor
G C
Traigo un poema dedicado a esa mujer
Am Dm
Ya no es un sueño, Emi esta es tu canción
G
La que anhelaste y ahora si vas a tener.
Am
Si los momentos más alegres
F
Tienen una recompensa
G
Por eso eres tan intensa
C
No cambies nunca tu forma de ser.

E|-8-8-10-12-10-12-10-12-8------------------------------|
A|-------------------------10---------------------------|
D|------------------------------------------------------|
G|------------------------------------------------------|
B|------------------------------------------------------|
E|------------------------------------------------------|

E|-10-10-12-13-12-13-12-13-10---------------------------|
A|----------------------------12------------------------|
D|------------------------------------------------------|
G|------------------------------------------------------|
B|------------------------------------------------------|
E|------------------------------------------------------|

E|-12-12-13-15-13-15-13-13------------------------------|
A|------------------------------------------------------|
D|------------------------------------------------------|
G|------------------------------------------------------|
B|------------------------------------------------------|
E|------------------------------------------------------|

E|-17-17-12-10-12-10-12…--------------------------------|
A|------------------------------------------------------|
D|------------------------------------------------------|
G|------------------------------------------------------|
B|------------------------------------------------------|
E|------------------------------------------------------|

Am Dm
Esa guitarra llora y llora porque también le haces falta
G C
Y cada vez que tu te marchas como le llamas la atención
Am Dm
Vivo esperando tu regreso que me acompañe en la mañana
G C Am
Para acercarme a la ventana y así encontrar la inspiración.


Dm G
Aunque te encuentres lejos vas a volver
C Am
Porque tu gente siempre te va extrañar
Dm G
Tu corazón tan lindo te hace ser
C Am
Una mujer divina y muy especial.



RUMBA: Am,Dm,Am


ACORDES PARA GUITARRA

PIANO UKELELE
Am
C
Dm
E
G
F


COMENTARIOS

Aún no hay comentarios,

¡escribe el primero!

Escribe una pregunta, duda o comentario sobre esta canción, te responderemos a la brevedad.

Las más tocadas de Los Plumas Negras

Toca una Canción al Azar de Los Plumas Negras
Am
C
Dm
E
G
F