A Don Jesús
Los Prolijos
Acordes

Subida por yuchanxd


Más Versiones
Ver. 2 Ver. 3
HERRAMIENTAS

Cambiar Cifrado
Americano Latino

Cambiar Tonalidad
-1 +1

Partir Pantalla Imprimir FAQ

+A
-A
LETRA CON ACORDES

¿Tu Guitarra esta Afinada? PRUEBA NUESTRO NUEVO AFINADOR

INTRO: Em  B7

Solo

1|---------------------------------7 |
2|---------------------------------7-|
3|---------------------------------8-|
4|---------------------------------7-|
5|----------0-----------------0----9-|
6|--00-2-3---3-2-3---0-0-2-3-------7-|

1|---------------------------------------------------
2|---------------------------------------------------
3|---------------------------------------------------
4|---------------------------------------------------
5|-----------0-----------------00----------66--------
6|---00-2-3---3-2-3---0-0-2-3------5-6-77----77--55--

1|-------------------------------------7---7-|
2|-------------------------------------7---8-|
3|-------------------------------------8---9-|
4|-------------------------------------7---9-|
5|-66----------------------0-----------9---7-|
6|----77--55-33----00--2-3---3-2-3-0---7-----|



1|-7-------7-6-7-8-7-------7-|-7-------7-6-7-8-7-------7-|
2|---8---8-----------8---8---|---8---8-----------8---8---|
3|-----9---------------9-----|-----9---------------9-----|
4|---------------------------|---------------------------|
5|---------------------------|---------------------------|
6|---------------------------|---------------------------|

1|--12--12-11-8-7-------------------
2|----------------10-8-7------------
3|-----------------------9-8--------
4|---------------------------10-9-7-
5|----------------------------------
6|----------------------------------

1|-------------------------------|---7----7---|
2|-------------------------------|---7----8---|
3|------------------------ --8-9-|---8----9---|
4|-----------------------8-9-----|---7----9---|
5|-10-9-7-6-9-7-6-7-9-10---------|---9----7---|
6|-------------------------------|---7--------|



Em
No me gusta que me miren, que controlen mis horarios

Am
Yo no soy ninguna plaga, nada más un poco vago

C            B7                        Em       C7  B7
Voy, por la vida, salvando el día a día


No me gusta que me estudien los piojos resucitados,
Como si fueran los dueños y gendarmes de mis actos
¿Quién los autoriza para estar de ese lado?

Am                                               Em
Yo cosecho lo que siembro como bien lo dijo don Jesús, uhuh uhuh

Am                                               Em
El camino de lo bueno lo llevo directo hasta la cruz, uhuh uhuh

Am                                             G
Flores, arcoíris, conejitos prometió antes de irse

                                             F#
Los espero con mil ganas, pero ya no queda nada de paciencia

     F                            Em         C7  B7
Esto ya no tiene ciencia hay que esperar



Tampoco me gustan las iglesias que venden palabras huecas
Vamos a hacer una bomba que entre sola por la puerta
En silencio y sin sacrificio
Todos saben de que hablo, falan con acento raro
Compran almas a buen precio y les quitan medio sueldo
Ya no queda esperanza más que ver como avanza


Yo cosecho lo que siembro como bien lo dijo don Jesú, uhuh uhuh
El camino de lo bueno lo llevo directo hasta la cruz, uhuh uhuh
Flores, arcoíris, conejitos prometió antes de irse
Los espero con mil ganas, pero ya no queda nada de paciencia
Esto ya no tiene ciencia hay que esperar

////////////////// ¿Te Animas? Sube una canción a este sitio. //////////////////

ACORDES PARA GUITARRA

PIANO UKELELE
Em
B7
Am
C
C7
G
F#
F


COMENTARIOS

Aún no hay comentarios,

¡escribe el primero!

Escribe una pregunta, duda o comentario sobre esta canción, te responderemos a la brevedad.

Las canciones más tocadas de Los Prolijos

Toca una Canción al Azar de Los Prolijos
Em
B7
Am
C
C7
G
F#
F

23.00


Nuestro servidor se demoró 0.03 segundos en generar esta página. Eso fue realmente muy rápido!