Primavera (Acordes)

Los tetas

Subida por Day23


Imprimir FAQ
+A
-A

Texto

Desplazamiento

Transportador

Color de Fondo

Herramientas

TAMAÑO
TONALIDAD
+A
subir tono+ (F4)
-A
bajar tono- (F2)
Intro


|------------------------------------------------------------------|
|------------------------------------------------------------------|
|-----------------------------------------------------4---4---46--|
|---------------------------------------------4h6---6---6----------|
|-2h4-2h4---2h4-2h4----2h4-2h4---444-2h4---------------------------|
|------------------------------------------------------------------|

|--------4-4-4-4-4------4-x-4-46-6-6------4-4-4-4-4-------46/5-5-|
|--------4-4-4-4-4------4-x-4-46-6-6------4-4-4-4-4-------46/5-5-|
|--------4-4-4-4-4------4-x-4-46-6-6------4-4-4-4-4-------46/5-5-|
|------------------------------------------------------------------|
|-2h4-2-------------2h4----------------2h4------------2h4----------|
|------------------------------------------------------------------|

|-4x4x4x4x4h6x4--3444------------------4x4x4x4h6-x-4---3444-----------|
|-4x4x4x4x4h6x4--3444------------------4x4x4x4h6-x-4---3444----5~-----|
|-4x4x4x4x4h6x4--3444--6-5-4~-6-5-4~---4x4x4x4h6-x-4---3444----5~-----|
|----------------------------------------------------------------4~-----|
|----------------------------------------------------------------5~-----|
|-----------------------------------------------------------------------|

"Culo y musicman si huelo algo......"
esta parte la pueden sacar ustedes, muy sencillo

|-4x4x4666---4x4x4h6x5------4x4x4x4x4x4x4x4x4-4--4-4--4--|
|-4x4x4666---4x4x4h6x5------4x4x4x4x4x4x4x4x4-4--4-4--4--|
|-4x4x4666---4x4x4h6x5------4x4x4x4x4x4x4x4x4-4--4-4--4--|
|---------------------------------------------------------|
|---------------------------------------------------------|
|---------------------------------------------------------!

estas son algunos riffs que tocan entre medio:

"La familia chilenita"

|--4-x-4--------------------|
|--4-x-4--------------------|
|--4-x-4---6-5-4--6-5-4-----|
|---------------------------|
|---------------------------|
|---------------------------|

"No necesito nada mas"

|--6-6-6-6--6-x-6-6/6-6-6-6--x-5-x-4------|
|--4-4-4-4--4-x-4-4/6-6-6-6--x-5-x-4------|
|--4-4-4-4--4-x-4-4/6-6-6-6--x-5-x-4------|
|-----------------------------------------|
|-----------------------------------------|
|-----------------------------------------|

"Esta noche ya es funk"

|-------------------------|
|-------------------------|
|------4-6-6-4------------|
|--4h6---------4----------|
|-------------------------|
|-------------------------|

Despues sigue el segundo verso "los tetas otra vez en la ciudad"

|-10/1210------9/109----7/97-----3/0--|
|----------------------------------------|
|----------------------------------------|
|----------------------------------------|
|----------------------------------------|
|----------------------------------------|

El rap de teatime, se improvisa entre esos acordes y demas

|------------9-8-7--7/9-9-9---9-8-7--9-8-7----|
|------------9-8-7--7/9-9-9---9-8-7--9-8-7----|
|---7h9-7/9--9-8-7--7/9-9-9---9-8-7--9-8-7----|
|---------------------------------------------|
|---------------------------------------------|
|---------------------------------------------|

"Solo quiero chuparte las tetas"

|-----------------------------------------------------------------------|
|-------------------------------10/12--10-10-8-10-8-10-8-10/12-10-8-----|
|---7-9/11--7-7----7-9-7-9----9--------------------------------------9--|X4
|-9--------------9------------------------------------------------------|
|-----------------------------------------------------------------------|
|-----------------------------------------------------------------------|



"seras bendecido por el funk

|--------------------------------------------------------------------------|
|--------------------------------------------------------------------------|
|-7/97--6/76--4/64-------2-----7/97--6/76--4/64-------2-----2/4-x2---|
|-----------------------2h4---4-------------------------2h4---2h4----------|
|--------------------------------------------------------------------------|
|--------------------------------------------------------------------------|




|--5-x-6---5~-----------------|
|--5-x-6---5~---5h8-----------|
|--5-x-6---5~-------7-5--x2---|
|----------0~-----------------|
|----------0~-----------------|
|-----------------------------|


El solo es un webeo tremendo asi que desde aca improvisan


|-----------------------------------------------------------------------------|
|---------------------------------------------15----15------------------------|
|-14b~-14b~-12-14b~16-------------14/16---14b~--14b~---14b~-12-14-12-11-12-12-|
|---------------------------12h14---------------------------------------------|
|---------------------12h14---------------------------------------------------|
|-----------------------------------------------------------------------------|

El solo termina con este riff

|--------------------------------------------|
|--------------------------------------------|
|--------------------------------------x2----|
|--------------------------------------------|
|--5h7-777-5h7-------------------------------|
|--------------5h7-3-5--5/7--5-3-5-3---------|

La ultima parte "Todos tienen que bailar el funk......"

|--121212x12121212x12x13x14141414x14x13x12121212---------------------------|
|--121212x12121212x12x13x14141414x14x13x12121212--x2-----------------------|
|--121212x12121212x12x13x14141414x14x13x12121212-----------12~-14-12-------|
|----------------------------------------------------12h14------------14---|
|--------------------------------------------------------------------------|
|--------------------------------------------------------------------------|



Y eso, las partes que faltan se pueden improvisar facilmente,
 esta es la primero tab que hago y espero que les sirva

HERRAMIENTAS ACORDESWEB:


LETRA DE LA CANCIÓN:

Ver la letra sola (sin acordes)

OTRAS VERSIONES DE LA MISMA CANCIÓN:

Ver. 2

DESCARGAR PDF / IMPRIMIR CANCIÓN



ACORDES PARA



TOP 20: Las más tocadas de Los tetas