Mi propia cruz
Lucybell
Acordes

Subida por Luisfernandodaza


Más Versiones
Ver. 2 Ver. 3 Ver. 4 Ver. 5 Ver. 6

Cambiar Cifrado
Americano Latino

Cambiar Tonalidad
-1 +1

Partir Pantalla Imprimir FAQ

+A
-A
INTRO

G|----------------------|
D|------10--------------|
A|-----------7---5-/10--|
E|---8------------------|
Tratar de ver...

VERSO
G|-------------------------------------------|
D|-------------------------------------------|
A|-3-3-3-3/7-7-7-7-------5-5-5-5/8-8-8-8-----|
E|----------------5-5-5-5--------------------|
El tiempo...

INTRO
G|----------------------|
D|------10--------------|
A|-----------7---5-/10--|
E|---8------------------|
Tratar de ser...

VERSO
G|-------------------------------------------|
D|-------------------------------------------|
A|-3-3-3-3/7-7-7-7-------5-5-5-5/8-8-8-8-----|
E|----------------5-5-5-5--------------------|
Tu rostro...

PRE-CORO
G|------------------------------------------------------------------|
D|------------------------------------------------------------------|
A|-3-3-3-3-33/5-5-5-5-8-8-8-8-88-7-7-7-7--------5-5-5-5/8-8-8-8-88--|
E|---------------------------------------5-5-5-5--------------------|
No soy ciego....

G|----------------------------------------------------------------------------|
D|----------------------------------------------------------------------------|
A|-3-3-3-3-33/5-5-5-5-8-8-8-8-88-7-7-7-7--------5-5-5-5/8-8-8-8-88-88/101010--|
E|---------------------------------------5-5-5-5------------------------------|
No soy ciego... Ni olvidar....

CORO
G|----------------------------------------|
D|----------------------------------------|
A|-3-3-3-3/7-7-7-7-------5-5-777-5h77h5---|
E|----------------5-5-5-5-----------------|
No me muero....

G|-------------------------------------------|
D|-------------------------------------------|
A|-3-3-3-3/7-7-7-7-------5-5-777-5h77h5/15---|
E|----------------5-5-5-5--------------------|
No me muero....

INTERMEDIO (sólo voz)

VERSO
G|--------------------------------------------------|
D|--------------------------------------------------|
A|-1010103-3-3-3/7-7-7-7-------5-5-5-5/8-8-8-8-----|
E|-----------------------5-5-5-5--------------------|
Tu hambre...

PRE-CORO
G|------------------------------------------------------------------|
D|------------------------------------------------------------------|
A|-3-3-3-3-33/5-5-5-5-8-8-8-8-88-7-7-7-7--------5-5-5-5/8-8-8-8-88--|
E|---------------------------------------5-5-5-5--------------------|
No soy ciego....

G|----------------------------------------------------------------------------|
D|----------------------------------------------------------------------------|
A|-3-3-3-3-33/5-5-5-5-8-8-8-8-88-7-7-7-7--------5-5-5-5/8-8-8-8-88-88/101010--|
E|---------------------------------------5-5-5-5------------------------------|
No soy ciego... Ni olvidar....

CORO
G|----------------------------------------|
D|----------------------------------------|
A|-3-3-3-3/7-7-7-7-------5-5-777-5h77h5---|x3
E|----------------5-5-5-5-----------------|
No me muero....

G|------------------------------------------|
D|------------------------------------------|
A|-3-3-3-3/7-7-7-7-------5-5-777-5h77h5-3---|
E|----------------5-5-5-5-------------------|
No me muero ni en mi propia cruz.

Esta canción esta muy buena para tocarla, la he escuchado pocas veces en vivo asi que saque
la versión de estudio con algunos arreglitos que capte en su ultima presentacion. Es un buen
tema para tocar y es bastante facil, mas que otros, bueno espero que les guste, ya estare subiendo
mas tablaturas de lucybell para bajo con todos los detalles y arreglos de Eduardo jeje.
Saludos a todos los fans de Lucybell y sigan escuchando wena musica!
---EdgE---

////////////////// ¿Te Animas? Sube una canción a este sitio. //////////////////

ACORDES PARA GUITARRA

PIANO UKELELE


COMENTARIOS

Aún no hay comentarios,

¡escribe el primero!

Escribe una pregunta, duda o comentario sobre esta canción, te responderemos a la brevedad.

Las más tocadas de Lucybell

Toca una Canción al Azar de Lucybell