Fui a cazar
Lucybell
Acordes

Subida por Noe2019


Más Versiones
Ver. 2 Ver. 3 Ver. 4

Cambiar Cifrado
Americano Latino

Cambiar Tonalidad
-1 +1

Partir Pantalla Imprimir FAQ

+A
-A
Intro (va en gran parte de la canción).
1---7----7-----------
2-----10---10-8------
3---------------9---- Efecto: Eco Delay?
4--------------------
5--------------------

Riff (Efecto: Overdrive?)
1-----------------------
2-----------------------
3-----------------------
4---------0-0-0-p-2-2-2-
5---0-p-3---------------
6-----------------------

1---------------- --------------------------------
2---------------- --------------------------------
3---------------- --------------------------------
4---------------- --------------------------------
5--7-5----------- --------5-7----------5-3-5-/-7--
6------8-7--5-5-- --3-8-5-----5-5-3-8-5-----------

Acordes: La5 (Lasus-Lam) Do5 (Do)
Bajo: La - Sol - Do

Verso 1 (Intro - acordes)
LA5 D05
Fui a cazar
LA5 DO5 LA5 DO5
Logre cargar mí arma y mí voz
LA5 DO5 LA5 DO5
Creí equilibrar la muerte en paz
LA5 DO5 LA5 DO5
Y la vida sin fin OH OH OH...

Verso 2 (Intro - acordes - Riff)
Fui a cazar
Creí mirara una parte de mí
Fui a cazar
Y huí sin parar, ¿de qué debo huir?...

Verso 3 (acordes más fuertes - Riff)
Fui a cazar
Logre cargar mí miedo sin voz
Fui a cazar
Y hay cortes en mí faz
¿Cómo debo huir?...

Verso 4 (acordes fuerte)
Nunca es tarde para ir de visita al cielo
Ni temprano para ser cazador de consuelos
(silencio) Nunca es tarde ir...

La5 570000 Do5 035000


ACORDES PARA GUITARRA

PIANO UKELELE
A5
D
C5


COMENTARIOS

Aún no hay comentarios,

¡escribe el primero!

Escribe una pregunta, duda o comentario sobre esta canción, te responderemos a la brevedad.

Las más tocadas de Lucybell

Toca una Canción al Azar de Lucybell
A5
D
C5