Tu Sangre
Lucybell
Acordes

Subida por joseianniello


Más Versiones
Ver. 2 Ver. 3 Ver. 4 Ver. 5 Ver. 6

Cambiar Cifrado
Americano Latino

Cambiar Tonalidad
-1 +1

Partir Pantalla Imprimir FAQ

+A
-A

ARTISTA:LUCYBELL
CANCION:TU SANGRE
ALBUM:SESION FUTURA
TRANSCRIPCION:PABLO CACERES


ESTUVE CACHANDO OTROS TABS Y LE HICE UNOS ARREGLOS
ESPERO QUE HAYA QUEDADO BIEN. PARA SACAR ESTE TAB DEBES TENER
MUY BUEN OIDO AL IGUAL QUE UN BUEN SISTEMA DE SONIDO OK?
APOYEMOS AL ROCK CHILENO GUUUUUOOOOO!!!!!!!!!!



INTRO

correre el peligro de buscar a ciegas entre tanta luz
es tu sangre.. tu sangre

G|-----------------------|
D|-----------------------|
A|-----------------------|
E|-3-2-0~----7~--8~3~---|


VERSO tu olvidas todo...... VERSO 2

G|-----------------------------------------------------------------------------|
D|-----------------------------------------------------------------------------|
A|-------5555500000555552222-2------------------------------------------------|
E|-1-3-5------------------------0~--7~--57---8~3~-----3-2-0~--7~--57--8~-3~--|

PRE-CORO tu olvidas todo......
G|---------------------------------|
D|---------------------------------|
A|-------5555500000555552222-2----|
E|-1-3-5---------------------------|


CORO
puedes gritar, gritar y no oir tu voz........

G|------------------------------------------------|
D|------------------------------------------------|
A|------00000-33333------2222200000555555555------|
E|-00000-----------33333--------------------------|

puedes gritar y gritar......
G|----------------------------------------------|
D|----------------------------------------------|
A|------00000-33333------222220000055-5~--------|
E|-00000-----------33333------------------------|


VERSO 2
correre el peligro de buscar.....

G|---------------------------------------------------|
D|---------------------------------------------------|
A|---------------------------------------------------|
E|--0~--7~--57---8~3~-----3-2-0~--7~--57--8~-3~----|


tu no sabes nada......
G|------------------------------|
D|------------------------------|
A|-------555550000055555-2------|
E|-1-3-5------------------------|



CORO
puedes gritar, gritar y no oir tu voz........

G|------------------------------------------------|
D|------------------------------------------------|
A|------00000-33333------2222200000555555555------|
E|-00000-----------33333--------------------------|

puedes gritar y gritar......
G|----------------------------------------------------|
D|----------------------------------------------------|
A|------00000-33333------222220000055555555/999999----|
E|-00000-----------33333------------------------------|


puedes gritaaaaaaa.........noooo noooooooo
G|---------------------------------------------------|
D|---------------------------------------------------|
A|------00000-33333------2222200000555555555999------|
E|-00000-----------33333-----------------------------|

puedes gritar y gritar.... y la misma fe.....
G|-------------------------------------------------|
D|-------------------------------------------------|
A|------00000-33333------222220000055-5~-/17~------|
E|-00000-----------33333---------------------------|


Dudas, reclamos, preguntas, sugerencias anything manden un mail a
[email protected] GRACIAS POR SU PREFERENCIA!!!!


ACORDES PARA GUITARRA

PIANO UKELELE


COMENTARIOS

Aún no hay comentarios,

¡escribe el primero!

Escribe una pregunta, duda o comentario sobre esta canción, te responderemos a la brevedad.

Las más tocadas de Lucybell

Toca una Canción al Azar de Lucybell