Give Me The Reason

Luther Vandross

Acordes

Give Me the Reason (1986)
Subida por JAVIERBATISTA



Cambiar Cifrado
Americano Latino

Cambiar Tonalidad
-1 +1

Partir Pantalla Imprimir FAQ

+A
-A


Ver solo la LETRA

Tabbed by: Brad Chamberlain

Intro:(00:07)
e|-----------------1~-|
B|------4~------------|
G|-0h1--------1h2-----| End of Intro.
D|--------------------|
A|--------------------|
E|--------------------|

Verse:(00:28)
e|------------------1~---------------------------1~----------|
B|------4~---------------------------4~----------------------|
G|-0h1---------1h2--------------0h1---------1h2--------------|
D|-----------------------------------------------------------|
A|-----------------------------------------------------------|
E|-----------------------------------------------------------|

e|----------------------0~-|
B|------4~------4-------0~-|
G|-0h1-------------0----1~-| End of Verse. Played through out
D|-------------------------| the song.
A|-------------------------|
E|-------------------------|

All Fills are with distorted guitars
Fill 1:(01:32)
e|--------------------|
B|--------------------|
G|--------------------|
D|-4--2--4b----2h4-2~-|
A|--------------------|
E|--------------------|

Fill 2:(02:47)
e|------------------------|
B|------------------------|
G|-4b----2-----2b---------|
D|----------4-------4--2~-|
A|------------------------|
E|------------------------|


Fill 3/Outro:(03:53)
e|-6b------3--6--6/8~-|
B|-6b-----------------|
G|--------------------| Repeat 3 more times until the end of
D|--------------------| the song.
A|--------------------|
E|--------------------|

Code:
~=Let ring
h=Hammer on
b=Bend up 1/2 step

NUEVO FORO DE MÚSICA

¿Tienes alguna duda, consulta, pregunta, consejo o algo para compartir sobre esta canción?

¡Puedes abrir un hilo en el FORO para que la comunidad te ayude! Hacer una pregunta

ACORDES PARA GUITARRA

PIANO UKELELE


Las más tocadas de Luther Vandross