Quiero gritarle al viento
Macabi
Acordes

Subida por rafag


Más Versiones
Ver. 2 Ver. 3

Cambiar Cifrado
Americano Latino

Cambiar Tonalidad
-1 +1

Partir Pantalla Imprimir FAQ

+A
-A
Quiero gritarle al viento



intro

e ---------------------------------
B----------------------------------
G---------7h9---7r-7-6-------------
D---7h9------------------9--7--9---
A----------------------------------
E----------------------------------

--------------------------17b-17b--15s14-----
------------10-12p10--17b---------------15---
-------9-11----------------------------------
--9-12---------------------------------------
---------------------------------------------
---------------------------------------------


D G D
Cada paso, cada momento
D6 G
Una huella, deje atrás
D G
Una vida, toda una historia
D A D
Es macabi, mi tnua


D G D
Sos mi luz, sos mi abrigo
D6 G
Sos la herencia, de mi destino
D G
Tus cuarenta, años de sueños
D A D
Me van marcando el camino



Estribillo:
G A
Quiero gritarle al viento,
D Bm
Que macabi es un sentimiento
G A D
Quiero nunca dejar de gritar
G A
Quiero gritarle al viento
D Bm
Que macabi es un sentimiento
G A
Quiero que estos cuarenta
D
Sean solo el comienzo

D G D
Latiendo naranja y negro
D6 G
Mi espacio, mi lugar
D G
Tu mistica, es tu escencia
D A D
Lo que te hace especial


Estribillo

Estribillo


ACORDES PARA GUITARRA

PIANO UKELELE
D
G
D6
A
Bm


COMENTARIOS

Aún no hay comentarios,

¡escribe el primero!

Escribe una pregunta, duda o comentario sobre esta canción, te responderemos a la brevedad.

Las más tocadas de Macabi

Toca una Canción al Azar de Macabi
D
G
D6
A
Bm