Piedra, marea, fuego
Marina Fages
Acordes

Subida por Dovi


Más Versiones
Ver. 2
HERRAMIENTAS

Cambiar Cifrado
Americano Latino

Cambiar Tonalidad
-1 +1

Partir Pantalla Imprimir FAQ

+A
-A
LETRA CON ACORDES

¿Tu Guitarra esta Afinada? PRUEBA NUESTRO NUEVO AFINADOR

Intro

C#
-------------------------------
------5------------------------
--4h6---6/4------4-------------
--------------4h6---4h6r4------
--------------------------2/4--
-------------------------------


    C#         F#           E
Te beso sobre rocas, tempestad
            C#          E              A
con mucho fuego, yo te beso sobre el fuego
              C#        F#        E
Hasta que termine este mundo y sepamos
      C#     E   A           C#
como sigue siempre te beso así


                    E  B              A    D
Como esa piedra, marea   rompe en tus ojos
                E           B           A    D
mirando al horizonte se borró de la historia
                  E   B              A   D
Ya no buscábamos humo,  amor concentrado
                  E              B        A      D
la corriente se eleva y vos también me besas así


Intro


    C#            F#            E
Lo busco en lo intenso y la nostalgia
              C#             E           A
me vibra el cuerpo, yo te invoco y te deseo
             C#       F#        E
un ritmo extraño, paraíso de verano
            C#       E   A           C#
corrientes cargas, siempre te beso así


                    E  B              A    D
Como esa piedra, marea   rompe en tus ojos
                E           B           A    D
mirando al horizonte se borró de la historia
                  E   B              A   D
Ya no buscabamos humo,  amor concentrado
                  E              B        A      D
la corriente se eleva y vos también me besas así


C#


E B C#m A x6

------12-11--9/7----------------------------------------
----------------9-9/14-12-10/9--7-7-7-9-7---9--9--9-----
--9/13---------------------------9-9-9--------11-11-11--
--------------------------------------------------------
--------------------------------------------------------
--------------------------------------------------------


------12-11---9-11-12/14--11-12-9---7-5-4------------------4--
------------------------------------------7-5-4-------4-5-7---
--9/13------------------------------------------6-4--6--------
--------------------------------------------------------------
--------------------------------------------------------------
--------------------------------------------------------------


--5/7-9/11--12-14/16-17--19-16-17-14-16-12p11/14---
---------------------------------------------------
---------------------------------------------------
---------------------------------------------------
---------------------------------------------------
---------------------------------------------------



                    E  B              A    D
Como esa piedra, marea   rompe en tus ojos
                E           B           A    D
mirando al horizonte se borró de la historia
                  E   B              A   D
Ya no buscábamos humo,  amor concentrado
                  E              B        A      D  E
la corriente se eleva y vos también me besas así

////////////////// ¿Te Animas? Sube una canción a este sitio. //////////////////

ACORDES PARA GUITARRA

PIANO UKELELE
C#
F#
E
A
B
D
C#m


COMENTARIOS

Aún no hay comentarios,

¡escribe el primero!

Escribe una pregunta, duda o comentario sobre esta canción, te responderemos a la brevedad.

Las canciones más tocadas de Marina Fages

Toca una Canción al Azar de Marina Fages
C#
F#
E
A
B
D
C#m

01.26


Nuestro servidor se demoró 4.76 segundos en generar esta página. Claramente hay conexiones mas rápidas...