Em Respeito Ao Vício (Matanza) Acordes

Álbum: Odiosa Natureza Humana (2011)



Cambiar Cifrado: |SOL > G| - |G > SOL|

BAJAR UN TONO BAJAR UN SEMI-TONO SUBIR UN SEMI-TONO SUBIR UN TONO PARTIR PANTALLA EN VERTICAL PARTIR PANTALLA EN VERTICAL ¡Ayuda!
-A
+A
Intro:
B A B A
E|----------------------------------|----------------------------------|
B|----------------------------------|----------------------------------|
G|-/4-444-4-2-----------------------|-/4-444-4-2-----------------------|
D|------------4-2-0-2/4-444-44-4-4-4|------------4-2-0-0h2-222-22-2-2-2|
A|----------------------------------|----------------------------------|
E|----------------------------------|----------------------------------|

B A G (B) A G (B) A
E|----------------------------|------------------------------|------------------------------
B|----------------------------|------------------------------|------------------------------
G|-/4-444-4-2-----------------|------------------------------|------------------------------
D|------------4-2-0-2/4-444-44|-4-2-0-------0-2-0-2-4-2-2-222|-4-2-0-------0-2-0-2-4-2-2-222
A|----------------------------|---------0-2------------------|---------0-2------------------
E|----------------------------|-------3----------------------|-------3----------------------

B A B A
Eu não gosto das coisas que eu vejo, Meu maior desejo eu não sei qual seria.
B A G (B) A
Não penso em nada que eu queira Além da primeira cerveja do dia.
B A B A
Hoje eu tenho certeza que gosto muito mais do bar vazio,
B A G (B) A G (B) A
Começo sentado na mesa mas sempre acabo no meio fio.

D A B F#
Me sociabilizo até bem, mas sempre que posso evito,
G D A
Por que eu sei que o menor atrito pode um mecanismo acionar.
D A B G
Melhor deixar como está por aqui Pra não ter que contar com o destino
D A (G) (A)
Eu não tiro a razão do assassino em vários casos que vi.

Refrão:
(D) (Pausa) (D + Grave) (Pausa)
Mundo horrível, gente desprezível, a quem vou me justificar
D A D G D A D
Tão difícil, em respeito ao vicio, deixar o conforto do bar.
Solo:
B A B A B A
E|-----------------------|----------------------------------------------------------------
B|-----------------------|---------------------2-3-2--------------------------------------
G|-----------------------|-------------2-222-2-------2-2/4-44444-2h4-44444-2-222----------
D|------4-4-4-2----------|-----4-4-0-4-------------------------------------------4-5-4-2-0
A|----2---------0-4-5-4-0|---2------------------------------------------------------------
E|-----------------------|----------------------------------------------------------------

G (B) A G (B) A
E|----------------------|----------------------------
B|----------------------|----------------------------
G|---------4-44444-2-222|----------------------------
D|-2-22222--------------|-4-5-4-2-0-2-2222-----------
A|----------------------|----------------------------
E|----------------------|----------------------------

D A B F#
Eu nao sei se o que eu penso está certo, Ou se eu parto de um mal julgamento,
G D A
Pois metade do mundo eu não quero por perto, E a outra metade eu lamento.
D A B G
Eu nao fiz esse mundo ruim, Mas talvez eu ajude a deixa-lo pior.
D A (G) (A)
Devo ser um monstro sem dó, Por que na verdade eu não tô nem ai.

Solo:
B A B A B A
E|--------------------------------|--------------------------|---------------------0-2-3-2-
B|--------------------------------|--------------------------|-------------2-3-2-3---------
G|--------------------------------|--------------------------|-----2-4-444-----------------
D|---------------2-4-5-4-2-0------|---------------2-4-5-4-2-4|-2-4-------------------------
A|-2-222-2-5-2-5-------------4-2-0|-2-222-2-5-2-5------------|-----------------------------
E|--------------------------------|--------------------------|-----------------------------

G (B) A G (B) A
E|-0-2-0------------------------------------|--------------------
B|-------3-2--------------------------------|-3-2----------------
G|-----------4-2-0--------------------------|-----4-2-0-2-0----2-
D|-----------------4-5-4-2-0-2-4-2-0-2-22222|----------------4---
A|------------------------------------------|--------------------
E|------------------------------------------|--------------------

D A D G D A D
Mundo horrível, gente desprezível, a quem vou me justificar
D A D G D A D
Tão difícil, em respeito ao vicio, deixar o conforto do bar.

D A D G D A D
Mundo horrível, gente desprezível, a quem vou me justificar
D A D G D (A) (G) (B) (A) (D + Grave)
Tão difícil, em respeito ao vicio, deixar o conforto do bar.


¡Siguiente!

Toca una Canción al Azar de Matanza
B
A
G
D
F#




Aún no hay comentarios, ¡escribe el primero!

Escribe un comentario o pregunta sobre esta canción:




Más canciones de Matanza

Clube dos Canalhas
Busted
Matarei
Maldito Hippie Sujo
Devil Horse
Mais Um Dia Por Aqui
Dashville Chainsaw Massacre
Five Feet High And Rising
As Melhores Putas do Alabama
Imbecil
Bota Com Buraco de Bala
Saco Cheio e Mau-Humor
Amigo Nenhum
O Bebum Acabado
Don't Take Your Guns To Town
Escárnio
Pé na porta, e soco na cara
Odiosa Natureza Humana
Quando Bebe Desse Jeito
O último bar

Siguiente


ABRIR ACORDES

Nuestro servidor se demoró 0.04 segundos en generar esta página. Eso fue realmente muy rápido!