Escárnio (Matanza) Acordes

Álbum: Odiosa Natureza Humana (2011)



Cambiar Cifrado: |SOL > G| - |G > SOL|

BAJAR UN TONO BAJAR UN SEMI-TONO SUBIR UN SEMI-TONO SUBIR UN TONO PARTIR PANTALLA EN VERTICAL PARTIR PANTALLA EN VERTICAL ¡Ayuda!
-A
+A
 Intro: A  B  C  B  E  A  B  C  D
E|------------------------------------------------------------------------------------------------------------|
B|------------------------------------------------------------------------------------------------------------|
G|------------------------------------------------------------------------------------------------------------|
D|----------------------------------------------------7~--7-9--10--------------------7~-----------------------|
A|---------------------------------------5---5-8-7--7--------------10~---8--7-8~---8-----8-7-8-7-8-7----------|
E|-0-5~--5-7--8--7~--4-0---0-5~--5-7--8--------------------------------------------------------------10-8-7---|

( A )
Tudo brilha, tudo é lindo, e seus amigos são de ouro
Você é um sábio, um milionário, um malandro poderoso
A bebida desce doce amacia o cigarro
A fumaça é perfumada, você manda no seu carro

D A
O problema é que no fim vem a conta
D A
O problema é que no fim tem que pagar
D A
O que mata é que o garçom tem um tridente
B
E vai ter eternidade pra cobrar

( A )
Todos riem da piada que não tem nenhuma graça
O mal gosto te define, esculpido em carrara
Os problemas são dos outros
Só importa a sua vida, o escárnio é seu compasso, a falsidade é sua amiga

D A
O problema é que no fim vem a conta
D A
O problema é que no fim tem que pagar
D A
O que mata é que o garçom tem um tridente
B
E vai ter eternidade pra cobrar
Pré-solo:
E|------------------------------------------------------------------|
B|------------------------------------------------------------------|
G|------------------------------------------------------------------|
D|------------------------------------------------------------------|
A|------------------------------------------------------------------|
E|-5~--3--1--0-----5~--3--1--0-----5~----5~----5~--3--0--3--5~------|

Solo:
E|------------------------------------------------------------------------------|
B|------------------------------------------------------------------------------|
G|-------9------------9-----------7----------7----------------------------------|
D|-7--10----10--7--10----10--5--9----9--5--9----9--------10------------10-------|
A|-------------------------------------------------8--12-----12--8--12-----12---|
E|------------------------------------------------------------------------------|

E|--------------------------------------------------------------------------------------------|
B|--------------------------------------------------------------------------------------------|
G|--------------------------7-7h9-7-------------9-12-10-9-7-----10-------9------------10---9--|
D|----------7h9--9-7-7-9-10--------10-9-10-9-10--------------7------7-6-----6-7---------------|
A|-7--7h8h10----------------------------------------------------------------------------------|
E|--------------------------------------------------------------------------------------------|

D A
O problema é que no fim vem a conta
D A
O problema é que no fim tem que pagar
D A
O que mata é que o garçom tem um tridente
B
E vai ter eternidade pra cobrar


¡Siguiente!

Toca una Canción al Azar de Matanza
A
B
C
E
D




Aún no hay comentarios, ¡escribe el primero!

Escribe un comentario o pregunta sobre esta canción:




Más canciones de Matanza

Pandemonium
O último bar
Imbecil
Tell Him I'm Gone
A Arte do Insulto
Pé na porta, e soco na cara
Mulher Diabo
Leave That Junk Alone
Em Respeito Ao Vício
Dashville Chainsaw Massacre
Ressaca Sem Fim
Goredoom Jamboree
Busted
Five Feet High And Rising
Quem Perde Sai
Matarei
O Que Está Feito, Está Feito
Rio de Whisky
Clube dos Canalhas
Sabendo Que Posso Morrer

Siguiente


ABRIR ACORDES

Nuestro servidor se demoró 0.04 segundos en generar esta página. Eso fue realmente muy rápido!