San Quentin (Matanza) Acordes

Álbum: To Hell With Johnny Cash (2005)



Cambiar Cifrado: |SOL > G| - |G > SOL|

BAJAR UN TONO BAJAR UN SEMI-TONO SUBIR UN SEMI-TONO SUBIR UN TONO PARTIR PANTALLA EN VERTICAL PARTIR PANTALLA EN VERTICAL ¡Ayuda!
-A
+A
(intro)

D |----------------------------------------
A |---2---2-2-4---2-4-4h6------------------
E |-2--------------------------------------

D |----------------------------------------
A |---2---2-2-4---6-4-2--------------------
E |-2--------------------------------------

B F# B
San Quentin, you've been livin' hell to me
E B
You've hosted me since nineteen sixty three
F# B
I've seen 'em come and go and I've seen them die
B F# B
And long ago I stopped askin' why

B F# B
San Quentin, I hate evry inch of you.
E B
You've cut me and have scarred me thru an' thru.
F# B
And I'll walk out a wiser weaker man;
B F# B
Mister Congressman why can't you understand.

(solo)
D |----------------------------------------
A |---2---2-2-4---2-4-4h6------------------
E |-2--------------------------------------

D |-----------------------4-----4----------
A |---2---2-2-4---6-4-2------2-------------
E |-2--------------------------------------

D |---------------------------------------
A |-2-4-6-6h7--7h11-11-11-9-7-6----------
E |---------------------------------------

D |-----------------------4-----4----------
A |---2---2-2-4---6-4-2------2-------------
E |-2--------------------------------------

B F# B
San Quentin, what good do you think you do?
E B
Do you think I'll be different when you're through?
F# B
You bent my heart and mind and you may my soul,
B F# B
And your stone walls turn my blood a little cold.

B F# B
San Quentin, may you rot and burn in hell.
E B
May your walls fall and may I live to tell.
F# B
May all the world forget you ever stood.
B F# B
And may all the world regret you did no good.

B F# B
San Quentin, you've been livin' hell to me.


¡Siguiente!

Toca una Canción al Azar de Matanza
B
F#
E




Aún no hay comentarios, ¡escribe el primero!

Escribe un comentario o pregunta sobre esta canción:




Más canciones de Matanza

Amigo Nenhum
Mulher Diabo
Mesa de Saloon
Tell Him I'm Gone
Devil Horse
Rio de Whisky
San Quentin
My Treasure
Em Respeito Ao Vício
Clube dos Canalhas
Wide Open Road
Imbecil
O último bar
Meio Psicopata
O Bebum Acabado
Whisky Para Um Condenado
Quando Bebe Desse Jeito
Escárnio
Matarei
A Arte do Insulto

Siguiente


ABRIR ACORDES

Nuestro servidor se demoró 0.03 segundos en generar esta página. Eso fue realmente muy rápido!