Déjala que baile
Melendi
Acordes

Subida por Hamj


Más Versiones
Ver. 2
HERRAMIENTAS

Cambiar Cifrado
Americano Latino

Cambiar Tonalidad
-1 +1

Partir Pantalla Imprimir FAQ

Ver solo la LETRA

+A
-A
LETRA CON ACORDES

¿Tu Guitarra esta Afinada? PRUEBA NUESTRO NUEVO AFINADOR

e--------[7]--  (armónicos)
B---[12]------
G-------------
D--------[7]--
A-------------


SIm
Hoy que la Tierra no es plana
LA
Ni la ciencia ya es de herejes
LA
Hoy que no marcan tendencia
SIm
Más las pinturas rupestres

SIm
Hoy que no tienen sentido
LA
Las palomas mensajeras
LA
Ahora que por fin las redes
SIm
Unen al planeta

                  SIm
Ella no es la princesa delicada
                      LA
Que ha venido a este “party” a estar sentada
              SIm
Ella no es solamente lo que ves
                LA
A ella ni tu ni nadie le para los pies

            SIm              LA
Déjala que baile con otros zapatos
               SIm            RE           LA
Unos que no aprieten cuando quiera dar sus pasos
            SIm                LA
Déjala que baile con faldas de vuelo
               SIm          RE            LA
Con los pies descalzos dibujando un mundo nuevo

Déjala que baile

e-7h5-7h5-----------------------------------------
B---------7-7---7-7-5--7h5-7h5---0-0-------0------
G-------------------------------------------------
D--------------------------------------7-7--------
A-------------------------------------------------
E-------------------------------------------------

e-7h5-7h5-----------------------------------------
B---------7-7---5-5-7--7h5-7h5---0-0----0---------
G-----------------------------------------6-7-----
D-------------------------------------------------
A-------------------------------------------------
E-------------------------------------------------



SIm
Ella es destino, ella es origen
SIm                    LA
Es el relato y la escritura que conviven
SIm
Ella es principio y ella es final
SIm
Baila con ella en esta fiesta que es global

SIm
Hoy que no hay duelos a muerte
LA
Cada vez que alguien te irrite
LA
Para poder desahogarnos
SIm
Hemos inventado Twitter

SIm
Si pensamos diferente
LA
Ya no huele a disputa
LA                       SIm
Los filósofos no brindan con cicuta

                  SIm
Ella no es la princesa delicada
                      LA
Que ha venido a este “party” a estar sentada
              SIm
Ella no es solamente lo que ves
                LA
A ella ni tu ni nadie le para los pies

            SIm              LA
Déjala que baile con otros zapatos
               SIm            RE           LA
Unos que no aprieten cuando quiera dar sus pasos
            SIm                LA
Déjala que baile con faldas de vuelo
               SIm          RE            LA
Con los pies descalzos dibujando un mundo nuevo

Déjala que baile

e-7h5-7h5-----------------------------------------
B---------7-7---7-7-5--7h5-7h5---0-0-------0------
G-------------------------------------------------
D--------------------------------------7-7--------
A-------------------------------------------------
E-------------------------------------------------

e-7h5-7h5-----------------------------------------
B---------7-7---5-5-7--7h5-7h5---0-0----0---------
G-----------------------------------------6-7-----
D-------------------------------------------------
A-------------------------------------------------
E-------------------------------------------------

SIm
Ella es destino, ella es origen
SIm                    LA
Es el relato y la escritura que conviven
SIm
Ella es principio y ella es final
SIm
Baila con ella en esta fiesta que es global

Todo en sim

[Déjala que baile en esta fiesta
Con la idea de liberarse de una moral impuesta
De no culpabilizarse por buscar la respuesta
Si tiene que casarse que sea con su protesta

Este solo es mi humilde modo de decir
Que aquel que busca un florero es que no cuida su jardín
Así que olvida todo lo aprendido y sal a bailar
Pues ninguna estrella pide permiso para brillar]

            SIm              LA
Déjala que baile con otros zapatos
               SIm            RE           LA
Unos que no aprieten cuando quiera dar sus pasos
            SIm                LA
Déjala que baile con faldas de vuelo
               SIm          RE            LA
Con los pies descalzos dibujando un mundo nuevo





===========================================================
Disfrutad mucho de esta pedazo de canción.
Saludos desde Palencia.

////////////////// ¿Te Animas? Sube una canción a este sitio. //////////////////

ACORDES PARA GUITARRA

PIANO UKELELE
Bm
A
D


COMENTARIOS

Aún no hay comentarios,

¡escribe el primero!

Escribe una pregunta, duda o comentario sobre esta canción, te responderemos a la brevedad.

Las canciones más tocadas de Melendi

Toca una Canción al Azar de Melendi
Bm
A
D

18.32


Nuestro servidor se demoró 3.66 segundos en generar esta página. Claramente hay conexiones mas rápidas...