Some Time Alone Alone

Melody's Echo Chamber

Acordes

Subida por wilsonsan



Cambiar Cifrado
Americano Latino

Cambiar Tonalidad
-1 +1

Partir Pantalla Imprimir FAQ

+A
-A


Ver solo la LETRA
Capo 1st fret

[Fig. 1]
e|-1-1-1-1-1-1-1-8--7-7-7-7-7-7-7-7---|
B|-1-1-1-1-1-1-1-10-8-8-8-8-8-8-8-8---|
G|-2-2-2-2-2-2-2-10-9-9-9-9-9-9-9-9---|
D|-3-3-3-3-3-3-3-10-9-9-9-9-9-9-9-9---|
A|-3-3-3-3-3-3-3-8--7-7-7-7-7-7-7-7---|
E|-1-1-1-1-1-1-1----------------------|

[Intro]
F     F  Em  (x3)
[Fig. 1]
e|-1-1-1-1-1-1-1-8--7-7-7-7-7-7-7-7---|
B|-1-1-1-1-1-1-1-10-8-8-8-8-8-8-8-8---|
G|-2-2-2-2-2-2-2-10-9-9-9-9-9-9-9-9---|
D|-3-3-3-3-3-3-3-10-9-9-9-9-9-9-9-9---|
A|-3-3-3-3-3-3-3-8--7-7-7-7-7-7-7-7---|
E|-1-1-1-1-1-1-1----------------------|

D     Bm  (x3)
A    F

[Verse 1]
F                                                    Em
we resigned the light to someone and hand it to the righteous
D                           Cm
we will walk until the right motion
      F                                                  Em
some time alone, alone to wander change your mind and until
           D                   Cm                   
waiting around, what everyone else is moving on and

[Instrumental]
F               F  Em  
on and talk             
[Fig. 1]
e|-1-1-1-1-1-1-1-8--7-7-7-7-7-7-7-7---|
B|-1-1-1-1-1-1-1-10-8-8-8-8-8-8-8-8---|
G|-2-2-2-2-2-2-2-10-9-9-9-9-9-9-9-9---|
D|-3-3-3-3-3-3-3-10-9-9-9-9-9-9-9-9---|
A|-3-3-3-3-3-3-3-8--7-7-7-7-7-7-7-7---|
E|-1-1-1-1-1-1-1----------------------|

F               F  Em  

[Chorus]
D       Bm         D             Bm
empty home it's not the same at all
D           Bm        A
tour the light and a verse in the night
F

[Verse 2]
F                                                    Em
baby you're the wonderwall at least until tommorrow, surprise
D                              Cm
we should shine a light on and we'll be done
F                                                  Em
under going over through your lies it ain't a compromise
D                             Cm                  
used to be walking until the dawn and on and on 

[Instrumental]
  F             F Em  
into the dawn           
[Fig. 1]
e|-1-1-1-1-1-1-1-8--7-7-7-7-7-7-7-7---|
B|-1-1-1-1-1-1-1-10-8-8-8-8-8-8-8-8---|
G|-2-2-2-2-2-2-2-10-9-9-9-9-9-9-9-9---|
D|-3-3-3-3-3-3-3-10-9-9-9-9-9-9-9-9---|
A|-3-3-3-3-3-3-3-8--7-7-7-7-7-7-7-7---|
E|-1-1-1-1-1-1-1----------------------|

F               F Em  

[Chorus]
D       Bm       D          Bm
empty home some time alone alone
D          Bm       A
tour the line and averse in the night
D       Bm       D              Bm
empty home it's not the same at all
D          Bm       A
tour the line and averse in the nigh

[Outro] 
F

NUEVO FORO DE MÚSICA

¿Tienes alguna duda, consulta, pregunta, consejo o algo para compartir sobre esta canción?

¡Puedes abrir un hilo en el FORO para que la comunidad te ayude! Hacer una pregunta

ACORDES PARA GUITARRA

PIANO UKELELE
F
Em
D
Bm
A
Cm


Las más tocadas de Melody's Echo Chamber

F
Em
D
Bm
A
Cm