Corazón Viajero

Miguel Gallardo

Acordes

Subida por BRAVOIGNACIO


Más Versiones
Ver. 2 Ver. 3 Ver. 4

Cambiar Cifrado
Americano Latino

Cambiar Tonalidad
-1 +1

Partir Pantalla Imprimir FAQ

+A
-A


Ver solo la LETRA
DEDICADO A MI AMIGA MARGARITA DE COLOMBIA
QUE TANTO LE GUSTA LA CANCION


INTRO


e -------------0-1-3--
B -------0-1-3--------
G ---0-2--------------
D --------------------
A --------------------
E --------------------


G C G
C F C F
C G C

G C G
C F C F
C G C

C G

e -------------0-1-3--
B -------0-1-3--------
G ---0-2--------------
D --------------------
A --------------------
E --------------------


C
Yo que todo te entregué
G
Sin pedir nada a cambio
Dm - Dm7 - Dm7
Hoy me dejas de querer
G C G
Y te olvidas de mí

C
Como nube que se va
G
Navegando en el cielo
F
Cada vez te alejas más
G C
lentamente de mí



Estribillo:

(mudo)

C Em C Am G
Corazón, corazón, corazón viajero
Dm G Dm C
Que no haz hecho otra cosa que hacerme sufrir
C Em C Am G
Corazón, corazón, corazón viajero
Dm G Dm C
A pesar de tu engaño, que seas feliz



e -------------0-1-3--
B -------0-1-3--------
G ---0-2--------------
D --------------------
A --------------------
E --------------------


G C G
C F C F
C G C

C G

e -------------0-1-3--
B -------0-1-3--------
G ---0-2--------------
D --------------------
A --------------------
E --------------------


C
Si en la vida alguna vez
G
Tú me echas en falta
Dm - Dm7 - Dm7
Te aseguro que estaré
G C G
Esperandote aqui

C
Con el tiempo curaré
G
El dolor que me dejas
F
Aunque nunca lograré
G C
Olvidarme de ti


Estribillo:

(mudo)

C Em C Am G
Corazón, corazón, corazón viajero
Dm G Dm C
Que no haz hecho otra cosa que hacerme sufrir
C Em C Am G
Corazón, corazón, corazón viajero
Dm G Dm C A D
A pesar de tu engaño, que seas feliz


SUBE UN TONO LAS NOTAS EN ADELANTE

Estribillo:

(mudo)

D F#m D Bm A
Corazón, corazón, corazón viajero
Em A Em D
Que no haz hecho otra cosa que hacerme sufrir
D F#m D Bm A
Corazón, corazón, corazón viajero
Em A Em D
A pesar de tu engaño, que seas feliz

D F#m D Bm A
Corazón, corazón, corazón viajero....


ACORDES PARA GUITARRA

PIANO UKELELE
G
C
F
Dm
Dm7
Dm7
Em
Am
A
D
F#m
Bm


Las más tocadas de Miguel Gallardo

G
C
F
Dm
Dm7
Dm7
Em
Am
A
D
F#m
Bm