Entrégate (desnúdate)
Miguel Gallardo
Acordes

Subida por marcos



Otras Versiones
Ver. 2

ENTRENA TU OÍDO MUSICAL CON ESTE JUEGO. ¿QUÉ ACORDE ES?. CLIC AQUÍ PARA JUGAR

Cambiar Cifrado
Americano Latino

Cambiar Tonalidad
-1 +1

Partir Pantalla Imprimir FAQ

+A
-A
LETRA CON ACORDES
Esta es la versión de la canción Desnúdate modificada para México
por censura llamada Entrégate, aunque es la misma melodía.
lo hize lo más parecida posible, Dedicada a mis amigas del foro.

INTRO PIANO

Em Em-Am
e ---3-2-0---------5---------
B ---------0---------8-7-5---
D ---------------------------
A ---------------------------
E ---------------------------

Em Am Em B7
e ------------------------------------------------------
B -----8-8-8-----------8-8-8----------------10-10--12---
G ------------------------------------------------------
D ------------9-9-7-9---------10-10-9-10----------------
A ------------------------------------------------------
E ------------------------------------------------------

VERSO

Em Am
Como las flores se abren a la luz
D G
como las aves libres al volar
C (Cmaj7-Bm-Am)
como la lluvia ......
(Am-Em-F#m)
rompe el hielo al fin
F# B7
....entrégate, entrégate

Em Am
Y que tus ojos me hablen lo de ti
D G
y que tus labios me den su sabor
C (Cmaj7-Bm-Am)
y que tu cuerpo
(Am-Em-F#m)
se llene de mi
F# B7
....entrégate, entrégate

CORO

Em Am7 Am
Entrégate, sin miedo amor
D G
y piérdete en mis brazos hasta el alba
Cmaj7 C B7
sin miedo amor... Entrégate
Em Am7 Am
Entrégate y enséñame
D G
lo que se esconde dentro de tu alma
Cmaj7 C B7
sin miedo amor... Entrégate

VERSO

Em Am
Quiero ofrecerte lo mejor de mí
D G
y descubrir contigo el amor
C (Cmaj7-Bm-Am)
acariciarte
(Am-Em-F#m)
y despertar tu piel
F# B7
....entrégate, entrégate

CORO

Em Am7 Am
Entrégate, sin miedo amor
D G
y piérdete en mis brazos hasta el alba
Cmaj7 C B7
sin miedo amor... Entrégate
Em Am7 Am
Entrégate y enséñame
D G
lo que se esconde dentro de tu alma
Cmaj7 C B7
sin miedo amor... Entrégate

SOLO GUITARRA

Em Am7 Am D G
e ------------------------------------------------------------------------
B --5-/8-8-----------5-/8-8-------------8/7--7---7-8-10--8-7---7----------
G ---------------------------------------------9-------------9------------
D ---------9-9-7-9---------10-10-9-10-----------------------------9-9-7-9-
A ------------------------------------------------------------------------
E ------------------------------------------------------------------------


Cmaj7 C B7 Em Am Em
sin miedo amor... Entrégate


ACORDES

Em 022000 C 032010
Am 002210 Cmaj7 032000
Am7 002010 Bm 024432
B7 024242 F# 244322
D 000232 F#m 244222
G 320003


ACORDES PARA GUITARRA

PIANO UKELELE
Em
Am
B7
D
G
C
Cmaj7
Bm
F#m
F#
Am7


COMENTARIOS

Aún no hay comentarios,

¡escribe el primero!

Para hacer una pregunta o dejar un comentario sobre esta canción, debes estar LOGUEADO

Las canciones más tocadas de Miguel Gallardo

Toca una Canción al Azar de Miguel Gallardo
Em
Am
B7
D
G
C
Cmaj7
Bm
F#m
F#
Am7

Nuestro servidor se demoró 0.1 segundos en generar esta página. Eso fue realmente muy rápido!