El Columpio (Acordes)

Miguel y Miguel

Subida por LuzdaryCorado

Compartir


Cambiar Cifrado
Americano Latino

Cambiar Tonalidad
-1 +1
Imprimir FAQ
+A
-A

Texto

Desplazamiento

Transportador

Color de Fondo

Archivos

TONALIDAD, TAMAÑO, CIFRADO, SCROL.

Nos renovamos: Ahora puedes cambiar TODO haciendo clic en ICONO de la Guitarra () que aparece en la parte inferior de esta página.


LETRA CON ACORDES

Requinto [Es lo que dice en el coro]

e|--2-4-5---5-5-5-4-2-5-5---5-5-4-2-5-5---5-5-4-7-7----
b|--3-5-7---7-7-7-5-3-7-7---7-7-5-3-7-7---7-7-5-9-5-5--
g|--------------------------------------------------6--
D|-----------------------------------------------------
A|-----------------------------------------------------
E|-----------------------------------------------------

e|--4-2-4---0-0-4-2-0-4-4---0-0-4-2-4-2-----0-2-2-0----
b|--5-3-5---2-2-5-3-2-5-5---2-2-5-3-5-3---3-2-3-3-2-3-2
g|----------------------------------------4---------4-2
D|-----------------------------------------------------
A|-----------------------------------------------------
E|-----------------------------------------------------

RE
Cuantas veces te  dije llorando
                                  LA
no juegues conmigo ni me eches mentiras
por que vas a quedarte en la calle
                               RE
tirada y perdida vendiendo tu vida

RE
yo te dije piensa lo que dices
                                  LA
no ves que la vida es como un columpio
cuando sube se siente bonito
                             RE
pero cuando  baja eso duele mucho

[CORO]
  SOL
ya lo ves
hoy te encuentras perdida
                              RE
vendiendo tu vida y yo muy contento
        LA
quiera dios
que tu cuerpo se seque
                                RE
y que de repente se lo lleve el viento

RE
no es que tenga yo odio contigo
                                LA
ni quiera desearte ya tu mala suerte

pero si viviria agradecido
                              RE
si en este momento me llega la muerte

[CORO]
SOL
ya lo ves
hoy te encuentras perdida
                              RE
vendiendo tu vida y yo muy contento
        LA
quiera dios
que tu cuerpo se seque
                              RE
y que de repente se lo lleve el viento.

Saludos YURI!! C:
Saludos Tijuana..!


Video Clip de El Columpio


ACORDES PARA GUITARRA

PIANO UKELELE
D
A
G


TOP 20: Las más tocadas de Miguel y Miguel


Acordes

Cerrar
D
A
G

09.02


64