Mientras Viva (Acordes)

Miguel y Miguel

Subida por Bajista61

Compartir


Cambiar Cifrado
Americano Latino

Cambiar Tonalidad
-1 +1
Imprimir FAQ
+A
-A

Texto

Desplazamiento

Transportador

Color de Fondo

Archivos

TONALIDAD, TAMAÑO, CIFRADO, SCROL.

Nos renovamos: Ahora puedes cambiar TODO haciendo clic en ICONO de la Guitarra () que aparece en la parte inferior de esta página.


LETRA CON ACORDES

1|---4---4-4--2--0--2-2--2--2--0--0--0-0---0--0--0--0--0--2--0--2--0--|
2|---5---5-5--3--2--3-3--3--3--2--0--2-2---2--2--0--0--0--3--2--3--2--|
3|-----------------------------------------------------------|
4|-----------------------------------------------------------|
5|-----------------------------------------------------------|
6|-----------------------------------------------------------|

1|---4---4-4--2--0--2-2--2--2--0--0--0-0---0--0--0--0--0--2--0--0-----|
2|---5---5-5--3--2--3-3--3--3--2--0--2-2---2--2--0--0--0--3--2--0--2--|
3|-----------------------------------------------------------------2--|
4|--4----2--0---------------------------------------------------------|
5|---------------4----2--0--------------------------------------------|
6|--------------------------------------------------------------------|

LA
mientras viva te seguire queriendo
                              MI
mientras viva te seguire adorando
              RE        MI       LA
en el cielo veras una estrella fugaz
        MI                  LA
es mi alma que te anda buscando


LA
por las noches en ti vivo soñando
                               MI
y despierto mi almohada acariciando
                 RE    MI            LA
tu recuerdo esta´qui porque nunca se ira
       MI               LA
y mis ojos te siguen llorando


LA7               RE                 MI
mientras viva mi amor llevare este sabor
                             LA
de esos labios que ya no me besan
LA7               RE                MI
mientras viva mi amor llevare ese calor
                              LA
de esos brazos que ya no me esperan


LA
por las noches en ti vivo soñando
                               MI
y despierto mi almohada acariciando
                 RE    MI            LA
tu recuerdo esta´qui porque nunca se ira
       MI               LA
y mis ojos te siguen llorando


LA7               RE                 MI
mientras viva mi amor llevare este sabor
                             LA
de esos labios que ya no me besan
LA7               RE                MI
mientras viva mi amor llevare ese calor
                              LA
de esos brazos que ya no me esperan



Esta cancion esta dedicada a todas y todos los que les guste esta
musica.
Se utiliza los tonos estilo ranchero, como tocan Miguel y Miguel
dudas??? ya saben

Que Viva el Valle y B.C.S


Video Clip de Mientras Viva


ACORDES PARA GUITARRA

PIANO UKELELE
A
E
D
A7


TOP 20: Las más tocadas de Miguel y Miguel


Acordes

Cerrar
A
E
D
A7

03.31


76