Paloma piquito de oro (Acordes)

Miguel y Miguel

Subida por mgaleana

Compartir


Cambiar Cifrado
Americano Latino

Cambiar Tonalidad
-1 +1
Imprimir FAQ
+A
-A

Texto

Desplazamiento

Transportador

Color de Fondo

Archivos

TONALIDAD, TAMAÑO, CIFRADO, SCROL.

Nos renovamos: Ahora puedes cambiar TODO haciendo clic en ICONO de la Guitarra () que aparece en la parte inferior de esta página.


LETRA CON ACORDES

ESTA EN TONO DE "LA"
EN LA ARMONIA (EL QUE ACOMPAÑA AL REQUINTO) SERIA ASI COMO INDICA LAS LETRAS:

              E               A            E          A

1|------0-2-3-4--4-4--2-4-2-2-0-0--0-2-0-0---------------
2|----0-2-3-4-5--5-5--3-5-3-3-2-2--2-3-2-2-0-0--0---0-2--
3|--2---------------------------------------------2------
4|-------------------------------------------------------
5|-------------------------------------------------------
6|-------------------------------------------------------

   E            A        E                 A

1|-4-4--2-4-2-2-0-0--0-2-0-0-----2-0-2-0-------5-4-5-4-2-0--------------------
2|-5-5--3-5-3-3-2-2--2-3-2-2-0-2-3-2-3-2-0-----7-5-7-5-3-2-0------------------
3|-----------------------------------------2-----------------2--1-------------
4|----------------------------------------------------------------4-2-0-------
5|----------------------------------------------------------------------4-2-0-
6|----------------------------------------------------------------------------

 POSICION        POSICION
    A                B

1|--5-----     1|----------      LA "X" ES POR EL BAJEO
2|--5-----     2|--5-------
3|---6----     3|---7------
4|-----7--     4|-----6----
5|-----X--     5|-------7--
6|--------     6|-------x--


Video Clip de Paloma piquito de oro


ACORDES PARA GUITARRA

PIANO UKELELE
E
A
B


TOP 20: Las más tocadas de Miguel y Miguel


Acordes

Cerrar
E
A
B

12.39


94