Amor en Chapala (Acordes)

Mike Laure

Subida por Luisma

Compartir


Cambiar Cifrado
Americano Latino

Cambiar Tonalidad
-1 +1
Imprimir FAQ
+A
-A

Texto

Desplazamiento

Transportador

Color de Fondo

Archivos

TONALIDAD, TAMAÑO, CIFRADO, SCROL.

Nos renovamos: Ahora puedes cambiar TODO haciendo clic en ICONO de la Guitarra () que aparece en la parte inferior de esta página.


LETRA CON ACORDES

(Afínate:
  lago  de amooooor...
1E-0-2---0--2----------)

Intro: Bm E Bm E A Bm E A-D-A
E7       Bm  E7
Lago de amor
                   A
tu que viste a mis ojos llorar
                Bm
una tarde de Abril
E7              A
y en la luz matinal
        A7
Lago gentil
                D
Te uniré con mi alma
              E
y muy juntos iremos
               A
al sendero de amor o-o-or

        Bm       E7
Chapala tus olas
               A
me arrancan el alma
              Bm   E7
alma triste y sola
                A
sin ninguna esperanza
         A7
lago de amor
                D
te uniré con mi alma
              E7
y muy juntos iremos
              A
al sendero de amor

ARREGLO: Melodía

        Bm        E7
Chapala tus olas...
...al sendero de amor-o-o-or

Arriba donde dice “Intro” está el acompañamiento para
la “Intro”, como no tenemos tiempos [pentagrama] hay
que escuchar la canción de preferencia con Mike Laure.

Intro:
1-----------------10-----------------------9--------
2-----12-10-9-8-9----10-9-------10-9-7---7---9-7----
3-9-9-----------------------9-9--------9------------
4---------------------------------------------------
5---------------------------------------------------
6---------------------------------------------------
Melodía:
1---------------------------------------------------
2-------5-7--7--7-------7-9-9-9-------10-10------10-
3-7-7-7-----7--7---9-9-9---9-9-----11-------11-11---
4---------------------------------------------------
5---------------------------------------------------
6---------------------------------------------------

Melodía:
1-0-2---0--2----0-2-0-2-0-5-5-5-2--0-0-0-2-0-2------
2-2-2---2--3-----------------------2-2-2-2-2-3------
3---------------------------------------------------
4---------------------------------------------------
5---------------------------------------------------
6---------------------------------------------------

1---------------------------------------------------
2---------0-2---0---0-----0-2-0---2-0---------------
3-----1-2-----2-2-2-2---2-------2-----2-2-2---2-1-4-
4-2-4---------4---4-------------------------4-------
5---------------------------------------------------
6---------------------------------------------------

1---------------------------------------------------
2-----------0---0-1---------------------------------
3-2-2-2-1-2---3-------------------------------------
4---------------------------------------------------
5---------------------------------------------------
6---------------------------------------------------
Para mas avanzados esto es solo una guía, como podrás
observar tu le puedes poner más arreglos y finuras.


Video Clip de Amor en Chapala


ACORDES PARA GUITARRA

PIANO UKELELE
Bm
E
A
D
E7
A7


TOP 20: Las más tocadas de Mike Laure


Toca una Canción al Azar de Mike Laure

Acordes

Cerrar
Bm
E
A
D
E7
A7

13.15


110